   0
SECTION
   2
HEADER
   9
$LIMMIN
  10
0.0
  20
0.0
   9
$LIMMAX
  10
 210.000
  20
 297.000
   9
$EXTMIN
  10
0.0
  20
0.0
   9
$EXTMAX
  10
 210.000
  20
 297.000
   9
$LTSCALE
  40
 5.94000
   0
ENDSEC
   0
SECTION
   2
TABLES
  0
TABLE
  2
LTYPE
 70
    25
  0
LTYPE
  2
CONTINUOUS
 70
    64
  3
Solid line
 72
    65
 73
     0
 40
0.0
  0
LTYPE
  2
BORDER
 70
    64
  3
__ __ . __ __ . __ __ . __ __ . __ __ . __ __ .
 72
    65
 73
     6
 40
1.75
 49
0.5
 49
-0.25
 49
0.5
 49
-0.25
 49
0.0
 49
-0.25
  0
LTYPE
  2
BORDER2
 70
    64
  3
__.__.__.__.__.__.__.__.__.__.__.__.__.__.__.__
 72
    65
 73
     6
 40
0.875
 49
0.25
 49
-0.125
 49
0.25
 49
-0.125
 49
0.0
 49
-0.125
  0
LTYPE
  2
BORDERX2
 70
    64
  3
____  ____  .  ____  ____  .  ____  ____  .  __
 72
    65
 73
     6
 40
3.5
 49
1.0
 49
-0.5
 49
1.0
 49
-0.5
 49
0.0
 49
-0.5
  0
LTYPE
  2
CENTER
 70
    64
  3
____ _ ____ _ ____ _ ____ _ ____ _ ____ _ ____ 
 72
    65
 73
     4
 40
2.0
 49
1.25
 49
-0.25
 49
0.25
 49
-0.25
  0
LTYPE
  2
CENTER2
 70
    64
  3
___ _ ___ _ ___ _ ___ _ ___ _ ___ _ ___ _ ___ _
 72
    65
 73
     4
 40
1.125
 49
0.75
 49
-0.125
 49
0.125
 49
-0.125
  0
LTYPE
  2
CENTERX2
 70
    64
  3
________  __  ________  __  ________  __  _____
 72
    65
 73
     4
 40
4.0
 49
2.5
 49
-0.5
 49
0.5
 49
-0.5
  0
LTYPE
  2
DASHDOT
 70
    64
  3
__ . __ . __ . __ . __ . __ . __ . __ . __ . __
 72
    65
 73
     4
 40
1.0
 49
0.5
 49
-0.25
 49
0.0
 49
-0.25
  0
LTYPE
  2
DASHDOT2
 70
    64
  3
_._._._._._._._._._._._._._._._._._._._._._._._
 72
    65
 73
     4
 40
0.5
 49
0.25
 49
-0.125
 49
0.0
 49
-0.125
  0
LTYPE
  2
DASHDOTX2
 70
    64
  3
____  .  ____  .  ____  .  ____  .  ____  .  __
 72
    65
 73
     4
 40
2.0
 49
1.0
 49
-0.5
 49
0.0
 49
-0.5
  0
LTYPE
  2
DASHED
 70
    64
  3
__ __ __ __ __ __ __ __ __ __ __ __ __ __ __ __
 72
    65
 73
     2
 40
0.75
 49
0.5
 49
-0.25
  0
LTYPE
  2
DASHED2
 70
    64
  3
_ _ _ _ _ _ _ _ _ _ _ _ _ _ _ _ _ _ _ _ _ _ _ _
 72
    65
 73
     2
 40
0.375
 49
0.25
 49
-0.125
  0
LTYPE
  2
DASHEDX2
 70
    64
  3
____  ____  ____  ____  ____  ____  ____  ____ 
 72
    65
 73
     2
 40
1.5
 49
1.0
 49
-0.5
  0
LTYPE
  2
DIVIDE
 70
    64
  3
____ . . ____ . . ____ . . ____ . . ____ . . __
 72
    65
 73
     6
 40
1.25
 49
0.5
 49
-0.25
 49
0.0
 49
-0.25
 49
0.0
 49
-0.25
  0
LTYPE
  2
DIVIDE2
 70
    64
  3
__..__..__..__..__..__..__..__..__..__..__..__.
 72
    65
 73
     6
 40
0.625
 49
0.25
 49
-0.125
 49
0.0
 49
-0.125
 49
0.0
 49
-0.125
  0
LTYPE
  2
DIVIDEX2
 70
    64
  3
________  .  .  ________  .  .  ________  .  . 
 72
    65
 73
     6
 40
2.5
 49
1.0
 49
-0.5
 49
0.0
 49
-0.5
 49
0.0
 49
-0.5
  0
LTYPE
  2
DOT
 70
    64
  3
. . . . . . . . . . . . . . . . . . . . . . . .
 72
    65
 73
     2
 40
0.25
 49
0.0
 49
-0.25
  0
LTYPE
  2
DOT2
 70
    64
  3
...............................................
 72
    65
 73
     2
 40
0.125
 49
0.0
 49
-0.125
  0
LTYPE
  2
DOTX2
 70
    64
  3
.  .  .  .  .  .  .  .  .  .  .  .  .  .  .  . 
 72
    65
 73
     2
 40
0.5
 49
0.0
 49
-0.5
  0
LTYPE
  2
HIDDEN
 70
    64
  3
__ __ __ __ __ __ __ __ __ __ __ __ __ __ __ __
 72
    65
 73
     2
 40
0.375
 49
0.25
 49
-0.125
  0
LTYPE
  2
HIDDEN2
 70
    64
  3
_ _ _ _ _ _ _ _ _ _ _ _ _ _ _ _ _ _ _ _ _ _ _ _
 72
    65
 73
     2
 40
0.1875
 49
0.125
 49
-0.0625
  0
LTYPE
  2
HIDDENX2
 70
    64
  3
____ ____ ____ ____ ____ ____ ____ ____ ____ __
 72
    65
 73
     2
 40
0.75
 49
0.5
 49
-0.25
  0
LTYPE
  2
PHANTOM
 70
    64
  3
______  __  __  ______  __  __  ______  __  __ 
 72
    65
 73
     6
 40
2.5
 49
1.25
 49
-0.25
 49
0.25
 49
-0.25
 49
0.25
 49
-0.25
  0
LTYPE
  2
PHANTOM2
 70
    64
  3
___ _ _ ___ _ _ ___ _ _ ___ _ _ ___ _ _ ___ _ _
 72
    65
 73
     6
 40
1.25
 49
0.625
 49
-0.125
 49
0.125
 49
-0.125
 49
0.125
 49
-0.125
  0
LTYPE
  2
PHANTOMX2
 70
    64
  3
____________    ____    ____    ____________   
 72
    65
 73
     6
 40
5.0
 49
2.5
 49
-0.5
 49
0.5
 49
-0.5
 49
0.5
 49
-0.5
  0
ENDTAB
  0
TABLE
  2
STYLE
 70
     2
  0
STYLE
  2
STANDARD
 70
0
 40
0.0
 41
1.0
 50
0.0
 71
0
 42
0.2
  3
TXT
  4
BIGFONT
  0
STYLE
  2
STANDARD1
 70
     4
 40
0.0
 41
1.0
 50
0.0
 71
     0
 42
0.2
  3
TXT
  4
BIGFONT
  0
ENDTAB
   0
TABLE
   2
LAYER
  70
2
   0
LAYER
   2
0
  70
0
  62
7
   6
CONTINUOUS
   0
LAYER
   2
LEVEL001
  70
0
  62
7
   6
CONTINUOUS
   0
ENDTAB
   0
ENDSEC
   0
SECTION
   2
ENTITIES
   0
LINE
   8
LEVEL001
   6
DASHDOT
  62
7
  10
 123.465
  20
 235.152
  30
0.0
  11
 129.048
  21
 235.152
  31
0.0
   0
LINE
   8
LEVEL001
   6
DASHDOT
  62
7
  10
 126.256
  20
 237.943
  30
0.0
  11
 126.256
  21
 232.360
  31
0.0
   0
LINE
   8
LEVEL001
   6
CONTINUOUS
  62
7
  10
 116.109
  20
 259.016
  30
0.0
  11
 120.829
  21
 267.041
  31
0.0
   0
LINE
   8
LEVEL001
   6
CONTINUOUS
  62
7
  10
 108.074
  20
 267.052
  30
0.0
  11
 116.098
  21
 271.771
  31
0.0
   0
CIRCLE
   8
LEVEL001
   6
CONTINUOUS
  62
7
  10
 117.850
  20
 268.793
  30
0.0
  40
 2.01595
   0
CIRCLE
   8
LEVEL001
   6
CONTINUOUS
  62
7
  10
 117.850
  20
 268.793
  30
0.0
  40
 2.87993
   0
LINE
   8
LEVEL001
   6
CONTINUOUS
  62
7
  10
 118.665
  20
 269.607
  30
0.0
  11
 117.036
  21
 267.978
  31
0.0
   0
LINE
   8
LEVEL001
   6
CONTINUOUS
  62
7
  10
 117.035
  20
 269.607
  30
0.0
  11
 118.665
  21
 267.978
  31
0.0
   0
LINE
   8
LEVEL001
   6
CONTINUOUS
  62
7
  10
 108.074
  20
 235.507
  30
0.0
  11
 116.098
  21
 230.787
  31
0.0
   0
CIRCLE
   8
LEVEL001
   6
CONTINUOUS
  62
7
  10
 117.850
  20
 233.766
  30
0.0
  40
 2.87993
   0
CIRCLE
   8
LEVEL001
   6
CONTINUOUS
  62
7
  10
 117.850
  20
 233.766
  30
0.0
  40
 2.01595
   0
LINE
   8
LEVEL001
   6
CONTINUOUS
  62
7
  10
 116.109
  20
 243.543
  30
0.0
  11
 120.829
  21
 235.518
  31
0.0
   0
ARC
   8
LEVEL001
   6
CONTINUOUS
  62
7
  10
 123.321
  20
 264.461
  30
0.0
  40
 3.45591
  50
 149.536
  51
 209.832
   0
ARC
   8
LEVEL001
   6
CONTINUOUS
  62
7
  10
 113.518
  20
 274.263
  30
0.0
  40
 3.45591
  50
 240.167
  51
 300.464
   0
ARC
   8
LEVEL001
   6
CONTINUOUS
  62
7
  10
 123.321
  20
 238.098
  30
0.0
  40
 3.45591
  50
 150.168
  51
 210.465
   0
ARC
   8
LEVEL001
   6
CONTINUOUS
  62
7
  10
 113.518
  20
 228.295
  30
0.0
  40
 3.45591
  50
 59.5360
  51
 119.833
   0
LINE
   8
LEVEL001
   6
CONTINUOUS
  62
7
  10
 118.665
  20
 232.952
  30
0.0
  11
 117.036
  21
 234.581
  31
0.0
   0
LINE
   8
LEVEL001
   6
CONTINUOUS
  62
7
  10
 117.035
  20
 232.952
  30
0.0
  11
 118.665
  21
 234.581
  31
0.0
   0
LINE
   8
LEVEL001
   6
CONTINUOUS
  62
7
  10
 127.021
  20
 257.039
  30
0.0
  11
 135.487
  21
 257.039
  31
0.0
   0
ARC
   8
LEVEL001
   6
CONTINUOUS
  62
7
  10
 131.498
  20
 269.135
  30
0.0
  40
 1.43996
  50
 89.9962
  51
 179.999
   0
LINE
   8
LEVEL001
   6
CONTINUOUS
  62
7
  10
 131.498
  20
 270.575
  30
0.0
  11
 132.535
  21
 270.575
  31
0.0
   0
ARC
   8
LEVEL001
   6
CONTINUOUS
  62
7
  10
 132.534
  20
 269.135
  30
0.0
  40
 1.43996
  50
0.0
  51
 89.9944
   0
POLYLINE
   8
LEVEL001
   6
CONTINUOUS
  62
7
  66
1
  10
0.0
  20
0.0
  30
0.0
  70
0
   0
VERTEX
   8
LEVEL001
   6
CONTINUOUS
  62
7
  10
 129.712
  20
 268.559
  30
0.0
   0
VERTEX
   8
LEVEL001
   6
CONTINUOUS
  62
7
  10
 129.712
  20
 268.905
  30
0.0
   0
VERTEX
   8
LEVEL001
   6
CONTINUOUS
  62
7
  10
 134.320
  20
 268.905
  30
0.0
   0
SEQEND
   0
LINE
   8
LEVEL001
   6
CONTINUOUS
  62
7
  10
 134.320
  20
 268.905
  30
0.0
  11
 134.320
  21
 268.559
  31
0.0
   0
LINE
   8
LEVEL001
   6
CONTINUOUS
  62
7
  10
 92.6002
  20
 267.052
  30
0.0
  11
 84.5759
  21
 271.771
  31
0.0
   0
CIRCLE
   8
LEVEL001
   6
CONTINUOUS
  62
7
  10
 82.8238
  20
 268.793
  30
0.0
  40
 2.01595
   0
CIRCLE
   8
LEVEL001
   6
CONTINUOUS
  62
7
  10
 82.8238
  20
 268.793
  30
0.0
  40
 2.87993
   0
LINE
   8
LEVEL001
   6
CONTINUOUS
  62
7
  10
 82.0093
  20
 269.607
  30
0.0
  11
 83.6383
  21
 267.978
  31
0.0
   0
LINE
   8
LEVEL001
   6
CONTINUOUS
  62
7
  10
 83.6383
  20
 269.607
  30
0.0
  11
 82.0093
  21
 267.978
  31
0.0
   0
ARC
   8
LEVEL001
   6
CONTINUOUS
  62
7
  10
 87.1558
  20
 274.263
  30
0.0
  40
 3.45591
  50
 239.536
  51
 299.833
   0
LINE
   8
LEVEL001
   6
CONTINUOUS
  62
7
  10
 92.6002
  20
 235.507
  30
0.0
  11
 84.5759
  21
 230.787
  31
0.0
   0
CIRCLE
   8
LEVEL001
   6
CONTINUOUS
  62
7
  10
 82.8238
  20
 233.766
  30
0.0
  40
 2.87993
   0
CIRCLE
   8
LEVEL001
   6
CONTINUOUS
  62
7
  10
 82.8238
  20
 233.766
  30
0.0
  40
 2.01595
   0
ARC
   8
LEVEL001
   6
CONTINUOUS
  62
7
  10
 77.3531
  20
 238.098
  30
0.0
  40
 3.45591
  50
 329.535
  51
 29.8325
   0
ARC
   8
LEVEL001
   6
CONTINUOUS
  62
7
  10
 87.1558
  20
 228.295
  30
0.0
  40
 3.45591
  50
 60.1665
  51
 120.464
   0
LINE
   8
LEVEL001
   6
CONTINUOUS
  62
7
  10
 82.0093
  20
 232.952
  30
0.0
  11
 83.6383
  21
 234.581
  31
0.0
   0
LINE
   8
LEVEL001
   6
CONTINUOUS
  62
7
  10
 83.6383
  20
 232.952
  30
0.0
  11
 82.0093
  21
 234.581
  31
0.0
   0
ARC
   8
LEVEL001
   6
CONTINUOUS
  62
7
  10
 77.3530
  20
 264.461
  30
0.0
  40
 3.45591
  50
 330.165
  51
 30.4615
   0
ARC
   8
LEVEL001
   6
CONTINUOUS
  62
7
  10
 69.1761
  20
 269.135
  30
0.0
  40
 1.43996
  50
 0.901337E-3
  51
 89.9944
   0
LINE
   8
LEVEL001
   6
CONTINUOUS
  62
7
  10
 69.1763
  20
 270.575
  30
0.0
  11
 68.1393
  21
 270.575
  31
0.0
   0
ARC
   8
LEVEL001
   6
CONTINUOUS
  62
7
  10
 68.1394
  20
 269.135
  30
0.0
  40
 1.43996
  50
 90.0056
  51
 180.000
   0
POLYLINE
   8
LEVEL001
   6
CONTINUOUS
  62
7
  66
1
  10
0.0
  20
0.0
  30
0.0
  70
0
   0
VERTEX
   8
LEVEL001
   6
CONTINUOUS
  62
7
  10
 70.9616
  20
 268.559
  30
0.0
   0
VERTEX
   8
LEVEL001
   6
CONTINUOUS
  62
7
  10
 70.9616
  20
 268.905
  30
0.0
   0
VERTEX
   8
LEVEL001
   6
CONTINUOUS
  62
7
  10
 66.3537
  20
 268.905
  30
0.0
   0
SEQEND
   0
LINE
   8
LEVEL001
   6
CONTINUOUS
  62
7
  10
 66.3537
  20
 268.905
  30
0.0
  11
 66.3537
  21
 268.559
  31
0.0
   0
CIRCLE
   8
LEVEL001
   6
CONTINUOUS
  62
7
  10
 126.256
  20
 235.152
  30
0.0
  40
 2.01595
   0
LINE
   8
LEVEL001
   6
CONTINUOUS
  62
7
  10
 127.071
  20
 234.337
  30
0.0
  11
 125.442
  21
 235.966
  31
0.0
   0
LINE
   8
LEVEL001
   6
CONTINUOUS
  62
7
  10
 125.442
  20
 234.337
  30
0.0
  11
 127.071
  21
 235.966
  31
0.0
   0
CIRCLE
   8
LEVEL001
   6
CONTINUOUS
  62
7
  10
 110.417
  20
 251.279
  30
0.0
  40
 7.48800
   0
POLYLINE
   8
LEVEL001
   6
CONTINUOUS
  62
7
  66
1
  10
0.0
  20
0.0
  30
0.0
  70
0
   0
VERTEX
   8
LEVEL001
   6
CONTINUOUS
  62
7
  10
 116.727
  20
 255.311
  30
0.0
   0
VERTEX
   8
LEVEL001
   6
CONTINUOUS
  62
7
  10
 118.481
  20
 255.311
  30
0.0
   0
VERTEX
   8
LEVEL001
   6
CONTINUOUS
  62
7
  10
 118.481
  20
 247.247
  30
0.0
   0
VERTEX
   8
LEVEL001
   6
CONTINUOUS
  62
7
  10
 116.727
  20
 247.247
  30
0.0
   0
SEQEND
   0
CIRCLE
   8
LEVEL001
   6
CONTINUOUS
  62
7
  10
 90.2570
  20
 251.279
  30
0.0
  40
 7.48800
   0
POLYLINE
   8
LEVEL001
   6
CONTINUOUS
  62
7
  66
1
  10
0.0
  20
0.0
  30
0.0
  70
0
   0
VERTEX
   8
LEVEL001
   6
CONTINUOUS
  62
7
  10
 83.9472
  20
 255.311
  30
0.0
   0
VERTEX
   8
LEVEL001
   6
CONTINUOUS
  62
7
  10
 82.1930
  20
 255.311
  30
0.0
   0
VERTEX
   8
LEVEL001
   6
CONTINUOUS
  62
7
  10
 82.1930
  20
 247.247
  30
0.0
   0
VERTEX
   8
LEVEL001
   6
CONTINUOUS
  62
7
  10
 83.9472
  20
 247.247
  30
0.0
   0
SEQEND
   0
LINE
   8
LEVEL001
   6
CONTINUOUS
  62
7
  10
 84.5648
  20
 243.543
  30
0.0
  11
 79.8451
  21
 235.518
  31
0.0
   0
LINE
   8
LEVEL001
   6
CONTINUOUS
  62
7
  10
 84.5648
  20
 259.016
  30
0.0
  11
 79.8451
  21
 267.041
  31
0.0
   0
CIRCLE
   8
LEVEL001
   6
CONTINUOUS
  62
7
  10
 110.417
  20
 251.279
  30
0.0
  40
 3.45600
   0
CIRCLE
   8
LEVEL001
   6
CONTINUOUS
  62
7
  10
 90.2570
  20
 251.279
  30
0.0
  40
 3.45600
   0
ARC
   8
LEVEL001
   6
CONTINUOUS
  62
7
  10
 100.337
  20
 251.279
  30
0.0
  40
 23.0394
  50
 60.1660
  51
 119.834
   0
ARC
   8
LEVEL001
   6
CONTINUOUS
  62
7
  10
 100.337
  20
 251.279
  30
0.0
  40
 23.0394
  50
 239.748
  51
 299.834
   0
POLYLINE
   8
LEVEL001
   6
CONTINUOUS
  62
7
  66
1
  10
0.0
  20
0.0
  30
0.0
  70
0
   0
VERTEX
   8
LEVEL001
   6
CONTINUOUS
  62
7
  10
 103.217
  20
 262.799
  30
0.0
   0
VERTEX
   8
LEVEL001
   6
CONTINUOUS
  62
7
  10
 100.913
  20
 264.239
  30
0.0
   0
VERTEX
   8
LEVEL001
   6
CONTINUOUS
  62
7
  10
 100.913
  20
 263.375
  30
0.0
   0
VERTEX
   8
LEVEL001
   6
CONTINUOUS
  62
7
  10
 97.4570
  20
 263.375
  30
0.0
   0
VERTEX
   8
LEVEL001
   6
CONTINUOUS
  62
7
  10
 97.4570
  20
 262.223
  30
0.0
   0
VERTEX
   8
LEVEL001
   6
CONTINUOUS
  62
7
  10
 100.913
  20
 262.223
  30
0.0
   0
VERTEX
   8
LEVEL001
   6
CONTINUOUS
  62
7
  10
 100.913
  20
 261.359
  30
0.0
   0
VERTEX
   8
LEVEL001
   6
CONTINUOUS
  62
7
  10
 103.217
  20
 262.799
  30
0.0
   0
SEQEND
   0
POLYLINE
   8
LEVEL001
   6
CONTINUOUS
  62
7
  66
1
  10
0.0
  20
0.0
  30
0.0
  70
0
   0
VERTEX
   8
LEVEL001
   6
CONTINUOUS
  62
7
  10
 103.217
  20
 239.759
  30
0.0
   0
VERTEX
   8
LEVEL001
   6
CONTINUOUS
  62
7
  10
 100.913
  20
 238.319
  30
0.0
   0
VERTEX
   8
LEVEL001
   6
CONTINUOUS
  62
7
  10
 100.913
  20
 239.183
  30
0.0
   0
VERTEX
   8
LEVEL001
   6
CONTINUOUS
  62
7
  10
 97.4570
  20
 239.183
  30
0.0
   0
VERTEX
   8
LEVEL001
   6
CONTINUOUS
  62
7
  10
 97.4570
  20
 240.335
  30
0.0
   0
VERTEX
   8
LEVEL001
   6
CONTINUOUS
  62
7
  10
 100.913
  20
 240.335
  30
0.0
   0
VERTEX
   8
LEVEL001
   6
CONTINUOUS
  62
7
  10
 100.913
  20
 241.199
  30
0.0
   0
VERTEX
   8
LEVEL001
   6
CONTINUOUS
  62
7
  10
 103.217
  20
 239.759
  30
0.0
   0
SEQEND
   0
POLYLINE
   8
LEVEL001
   6
CONTINUOUS
  62
7
  66
1
  10
0.0
  20
0.0
  30
0.0
  70
0
   0
VERTEX
   8
LEVEL001
   6
CONTINUOUS
  62
7
  10
 97.4570
  20
 274.138
  30
0.0
   0
VERTEX
   8
LEVEL001
   6
CONTINUOUS
  62
7
  10
 97.4570
  20
 272.303
  30
0.0
   0
VERTEX
   8
LEVEL001
   6
CONTINUOUS
  62
7
  10
 103.217
  20
 272.303
  30
0.0
   0
VERTEX
   8
LEVEL001
   6
CONTINUOUS
  62
7
  10
 103.217
  20
 274.138
  30
0.0
   0
SEQEND
   0
POLYLINE
   8
LEVEL001
   6
CONTINUOUS
  62
7
  66
1
  10
0.0
  20
0.0
  30
0.0
  70
0
   0
VERTEX
   8
LEVEL001
   6
CONTINUOUS
  62
7
  10
 97.4570
  20
 228.421
  30
0.0
   0
VERTEX
   8
LEVEL001
   6
CONTINUOUS
  62
7
  10
 97.4570
  20
 230.255
  30
0.0
   0
VERTEX
   8
LEVEL001
   6
CONTINUOUS
  62
7
  10
 103.217
  20
 230.255
  30
0.0
   0
VERTEX
   8
LEVEL001
   6
CONTINUOUS
  62
7
  10
 103.217
  20
 228.421
  30
0.0
   0
SEQEND
   0
LINE
   8
LEVEL001
   6
CONTINUOUS
  62
7
  10
 80.5125
  20
 219.855
  30
0.0
  11
 82.7691
  21
 222.192
  31
0.0
   0
LINE
   8
LEVEL001
   6
CONTINUOUS
  62
7
  10
 80.5842
  20
 216.979
  30
0.0
  11
 82.7695
  21
 214.716
  31
0.0
   0
ARC
   8
LEVEL001
   6
CONTINUOUS
  62
7
  10
 81.7904
  20
 218.448
  30
0.0
  40
 1.90080
  50
 132.245
  51
 230.612
   0
LINE
   8
LEVEL001
   6
CONTINUOUS
  62
7
  10
 76.3868
  20
 219.855
  30
0.0
  11
 74.1299
  21
 222.192
  31
0.0
   0
ARC
   8
LEVEL001
   6
CONTINUOUS
  62
7
  10
 75.1087
  20
 218.448
  30
0.0
  40
 1.90080
  50
 309.383
  51
 47.7508
   0
LINE
   8
LEVEL001
   6
CONTINUOUS
  62
7
  10
 76.3148
  20
 216.979
  30
0.0
  11
 74.1297
  21
 214.716
  31
0.0
   0
LINE
   8
LEVEL001
   6
CONTINUOUS
  62
7
  10
 120.162
  20
 219.855
  30
0.0
  11
 117.905
  21
 222.192
  31
0.0
   0
LINE
   8
LEVEL001
   6
CONTINUOUS
  62
7
  10
 120.090
  20
 216.979
  30
0.0
  11
 117.905
  21
 214.716
  31
0.0
   0
ARC
   8
LEVEL001
   6
CONTINUOUS
  62
7
  10
 118.884
  20
 218.448
  30
0.0
  40
 1.90080
  50
 309.383
  51
 47.7508
   0
LINE
   8
LEVEL001
   6
CONTINUOUS
  62
7
  10
 124.287
  20
 219.855
  30
0.0
  11
 126.544
  21
 222.192
  31
0.0
   0
ARC
   8
LEVEL001
   6
CONTINUOUS
  62
7
  10
 125.565
  20
 218.448
  30
0.0
  40
 1.90080
  50
 132.245
  51
 230.612
   0
LINE
   8
LEVEL001
   6
CONTINUOUS
  62
7
  10
 124.359
  20
 216.979
  30
0.0
  11
 126.544
  21
 214.716
  31
0.0
   0
LINE
   8
LEVEL001
   6
CONTINUOUS
  62
7
  10
 80.3272
  20
 213.276
  30
0.0
  11
 80.3272
  21
 212.112
  31
0.0
   0
LINE
   8
LEVEL001
   6
CONTINUOUS
  62
7
  10
 76.5717
  20
 213.276
  30
0.0
  11
 76.5717
  21
 212.112
  31
0.0
   0
LINE
   8
LEVEL001
   6
CONTINUOUS
  62
7
  10
 120.347
  20
 213.276
  30
0.0
  11
 120.347
  21
 212.112
  31
0.0
   0
LINE
   8
LEVEL001
   6
CONTINUOUS
  62
7
  10
 124.102
  20
 213.276
  30
0.0
  11
 124.102
  21
 212.112
  31
0.0
   0
LINE
   8
LEVEL001
   6
CONTINUOUS
  62
7
  10
 74.4177
  20
 229.968
  30
0.0
  11
 74.4177
  21
 225.360
  31
0.0
   0
LINE
   8
LEVEL001
   6
CONTINUOUS
  62
7
  10
 82.4813
  20
 229.968
  30
0.0
  11
 82.4813
  21
 225.360
  31
0.0
   0
LINE
   8
LEVEL001
   6
CONTINUOUS
  62
7
  10
 118.193
  20
 229.967
  30
0.0
  11
 118.193
  21
 225.359
  31
0.0
   0
LINE
   8
LEVEL001
   6
CONTINUOUS
  62
7
  10
 126.256
  20
 229.968
  30
0.0
  11
 126.256
  21
 225.360
  31
0.0
   0
LINE
   8
LEVEL001
   6
CONTINUOUS
  62
7
  10
 116.465
  20
 225.965
  30
0.0
  11
 116.465
  21
 223.632
  31
0.0
   0
LINE
   8
LEVEL001
   6
CONTINUOUS
  62
7
  10
 127.985
  20
 225.965
  30
0.0
  11
 127.985
  21
 223.632
  31
0.0
   0
LINE
   8
LEVEL001
   6
CONTINUOUS
  62
7
  10
 84.2089
  20
 225.965
  30
0.0
  11
 84.2089
  21
 223.632
  31
0.0
   0
LINE
   8
LEVEL001
   6
CONTINUOUS
  62
7
  10
 72.6890
  20
 225.965
  30
0.0
  11
 72.6890
  21
 223.632
  31
0.0
   0
POLYLINE
   8
LEVEL001
   6
CONTINUOUS
  62
7
  66
1
  10
0.0
  20
0.0
  30
0.0
  70
0
   0
VERTEX
   8
LEVEL001
   6
CONTINUOUS
  62
7
  10
 117.905
  20
 223.632
  30
0.0
   0
VERTEX
   8
LEVEL001
   6
CONTINUOUS
  62
7
  10
 117.905
  20
 222.192
  30
0.0
   0
VERTEX
   8
LEVEL001
   6
CONTINUOUS
  62
7
  10
 126.544
  20
 222.192
  30
0.0
   0
VERTEX
   8
LEVEL001
   6
CONTINUOUS
  62
7
  10
 126.544
  20
 223.632
  30
0.0
   0
SEQEND
   0
ARC
   8
LEVEL001
   6
CONTINUOUS
  62
7
  10
 117.850
  20
 268.793
  30
0.0
  40
 3.45591
  50
 329.537
  51
 120.463
   0
ARC
   8
LEVEL001
   6
CONTINUOUS
  62
7
  10
 117.850
  20
 233.766
  30
0.0
  40
 3.45591
  50
 239.536
  51
 30.4649
   0
LINE
   8
LEVEL001
   6
CONTINUOUS
  62
7
  10
 123.664
  20
 225.360
  30
0.0
  11
 123.664
  21
 223.632
  31
0.0
   0
LINE
   8
LEVEL001
   6
CONTINUOUS
  62
7
  10
 120.784
  20
 225.360
  30
0.0
  11
 120.784
  21
 223.632
  31
0.0
   0
LINE
   8
LEVEL001
   6
CONTINUOUS
  62
7
  10
 126.256
  20
 225.360
  30
0.0
  11
 118.192
  21
 225.360
  31
0.0
   0
ARC
   8
LEVEL001
   6
CONTINUOUS
  62
7
  10
 104.154
  20
 227.100
  30
0.0
  40
 1.15197
  50
 98.9721
  51
 145.943
   0
ARC
   8
LEVEL001
   6
CONTINUOUS
  62
7
  10
 123.473
  20
 237.786
  30
0.0
  40
 3.45591
  50
 149.747
  51
 215.560
   0
ARC
   8
LEVEL001
   6
CONTINUOUS
  62
7
  10
 113.830
  20
 228.143
  30
0.0
  40
 3.45591
  50
 54.4397
  51
 120.251
   0
ARC
   8
LEVEL001
   6
CONTINUOUS
  62
7
  10
 100.337
  20
 251.279
  30
0.0
  40
 23.3274
  50
 278.971
  51
 300.252
   0
ARC
   8
LEVEL001
   6
CONTINUOUS
  62
7
  10
 100.337
  20
 229.680
  30
0.0
  40
 3.45591
  50
 270.002
  51
 325.944
   0
LINE
   8
LEVEL001
   6
CONTINUOUS
  62
7
  10
 135.788
  20
 265.679
  30
0.0
  11
 129.136
  21
 265.679
  31
0.0
   0
POLYLINE
   8
LEVEL001
   6
CONTINUOUS
  62
7
  66
1
  10
0.0
  20
0.0
  30
0.0
  70
0
   0
VERTEX
   8
LEVEL001
   6
CONTINUOUS
  62
7
  10
 135.788
  20
 265.679
  30
0.0
   0
VERTEX
   8
LEVEL001
   6
CONTINUOUS
  62
7
  10
 135.788
  20
 268.559
  30
0.0
   0
VERTEX
   8
LEVEL001
   6
CONTINUOUS
  62
7
  10
 129.136
  20
 268.559
  30
0.0
   0
SEQEND
   0
LINE
   8
LEVEL001
   6
CONTINUOUS
  62
7
  10
 135.788
  20
 265.679
  30
0.0
  11
 129.136
  21
 265.679
  31
0.0
   0
ARC
   8
LEVEL001
   6
CONTINUOUS
  62
7
  10
 82.8240
  20
 268.793
  30
0.0
  40
 3.45591
  50
 59.5389
  51
 210.462
   0
POLYLINE
   8
LEVEL001
   6
CONTINUOUS
  62
7
  66
1
  10
0.0
  20
0.0
  30
0.0
  70
0
   0
VERTEX
   8
LEVEL001
   6
CONTINUOUS
  62
7
  10
 82.7695
  20
 223.632
  30
0.0
   0
VERTEX
   8
LEVEL001
   6
CONTINUOUS
  62
7
  10
 82.7695
  20
 222.192
  30
0.0
   0
VERTEX
   8
LEVEL001
   6
CONTINUOUS
  62
7
  10
 74.1297
  20
 222.192
  30
0.0
   0
VERTEX
   8
LEVEL001
   6
CONTINUOUS
  62
7
  10
 74.1297
  20
 223.632
  30
0.0
   0
SEQEND
   0
ARC
   8
LEVEL001
   6
CONTINUOUS
  62
7
  10
 82.8239
  20
 233.766
  30
0.0
  40
 3.45591
  50
 149.536
  51
 300.462
   0
LINE
   8
LEVEL001
   6
CONTINUOUS
  62
7
  10
 77.0096
  20
 225.360
  30
0.0
  11
 77.0096
  21
 223.632
  31
0.0
   0
LINE
   8
LEVEL001
   6
CONTINUOUS
  62
7
  10
 79.8896
  20
 225.360
  30
0.0
  11
 79.8896
  21
 223.632
  31
0.0
   0
LINE
   8
LEVEL001
   6
CONTINUOUS
  62
7
  10
 74.4177
  20
 225.360
  30
0.0
  11
 82.4813
  21
 225.360
  31
0.0
   0
ARC
   8
LEVEL001
   6
CONTINUOUS
  62
7
  10
 96.5194
  20
 227.100
  30
0.0
  40
 1.15197
  50
 34.0575
  51
 81.0279
   0
ARC
   8
LEVEL001
   6
CONTINUOUS
  62
7
  10
 77.2010
  20
 237.786
  30
0.0
  40
 3.45591
  50
 324.437
  51
 30.2504
   0
ARC
   8
LEVEL001
   6
CONTINUOUS
  62
7
  10
 86.8435
  20
 228.143
  30
0.0
  40
 3.45591
  50
 59.7470
  51
 125.562
   0
ARC
   8
LEVEL001
   6
CONTINUOUS
  62
7
  10
 100.337
  20
 251.279
  30
0.0
  40
 23.3274
  50
 239.748
  51
 261.028
   0
ARC
   8
LEVEL001
   6
CONTINUOUS
  62
7
  10
 100.337
  20
 229.680
  30
0.0
  40
 3.45591
  50
 214.056
  51
 270.000
   0
LINE
   8
LEVEL001
   6
CONTINUOUS
  62
7
  10
 64.8856
  20
 265.679
  30
0.0
  11
 71.5377
  21
 265.679
  31
0.0
   0
POLYLINE
   8
LEVEL001
   6
CONTINUOUS
  62
7
  66
1
  10
0.0
  20
0.0
  30
0.0
  70
0
   0
VERTEX
   8
LEVEL001
   6
CONTINUOUS
  62
7
  10
 64.8856
  20
 265.679
  30
0.0
   0
VERTEX
   8
LEVEL001
   6
CONTINUOUS
  62
7
  10
 64.8856
  20
 268.559
  30
0.0
   0
VERTEX
   8
LEVEL001
   6
CONTINUOUS
  62
7
  10
 71.5377
  20
 268.559
  30
0.0
   0
SEQEND
   0
LINE
   8
LEVEL001
   6
CONTINUOUS
  62
7
  10
 64.8856
  20
 265.679
  30
0.0
  11
 71.5377
  21
 265.679
  31
0.0
   0
ARC
   8
LEVEL001
   6
CONTINUOUS
  62
7
  10
 100.337
  20
 251.279
  30
0.0
  40
 4.60788
  50
 44.0478
  51
 135.260
   0
ARC
   8
LEVEL001
   6
CONTINUOUS
  62
7
  10
 100.337
  20
 251.279
  30
0.0
  40
 4.60788
  50
 224.049
  51
 315.952
   0
ARC
   8
LEVEL001
   6
CONTINUOUS
  62
7
  10
 100.337
  20
 251.279
  30
0.0
  40
 16.5596
  50
 196.702
  51
 343.301
   0
ARC
   8
LEVEL001
   6
CONTINUOUS
  62
7
  10
 100.337
  20
 251.280
  30
0.0
  40
 17.5676
  50
 193.269
  51
 346.732
   0
ARC
   8
LEVEL001
   6
CONTINUOUS
  62
7
  10
 100.337
  20
 251.280
  30
0.0
  40
 16.5596
  50
 16.6985
  51
 163.298
   0
ARC
   8
LEVEL001
   6
CONTINUOUS
  62
7
  10
 100.337
  20
 251.279
  30
0.0
  40
 17.5676
  50
 13.2684
  51
 166.731
   0
POLYLINE
   8
LEVEL001
   6
CONTINUOUS
  62
7
  66
1
  10
0.0
  20
0.0
  30
0.0
  70
0
   0
VERTEX
   8
LEVEL001
   6
CONTINUOUS
  62
7
  10
 82.7695
  20
 213.276
  30
0.0
   0
VERTEX
   8
LEVEL001
   6
CONTINUOUS
  62
7
  10
 82.7695
  20
 214.716
  30
0.0
   0
VERTEX
   8
LEVEL001
   6
CONTINUOUS
  62
7
  10
 74.1297
  20
 214.716
  30
0.0
   0
VERTEX
   8
LEVEL001
   6
CONTINUOUS
  62
7
  10
 74.1297
  20
 213.276
  30
0.0
   0
SEQEND
   0
LINE
   8
LEVEL001
   6
CONTINUOUS
  62
7
  10
 74.1297
  20
 213.276
  30
0.0
  11
 82.7695
  21
 213.276
  31
0.0
   0
LINE
   8
LEVEL001
   6
CONTINUOUS
  62
7
  10
 126.544
  20
 213.276
  30
0.0
  11
 117.905
  21
 213.276
  31
0.0
   0
POLYLINE
   8
LEVEL001
   6
CONTINUOUS
  62
7
  66
1
  10
0.0
  20
0.0
  30
0.0
  70
0
   0
VERTEX
   8
LEVEL001
   6
CONTINUOUS
  62
7
  10
 117.905
  20
 213.276
  30
0.0
   0
VERTEX
   8
LEVEL001
   6
CONTINUOUS
  62
7
  10
 117.905
  20
 214.716
  30
0.0
   0
VERTEX
   8
LEVEL001
   6
CONTINUOUS
  62
7
  10
 126.544
  20
 214.716
  30
0.0
   0
VERTEX
   8
LEVEL001
   6
CONTINUOUS
  62
7
  10
 126.544
  20
 213.276
  30
0.0
   0
SEQEND
   0
POLYLINE
   8
LEVEL001
   6
CONTINUOUS
  62
7
  66
1
  10
0.0
  20
0.0
  30
0.0
  70
0
   0
VERTEX
   8
LEVEL001
   6
CONTINUOUS
  62
7
  10
 80.7535
  20
 212.112
  30
0.0
   0
VERTEX
   8
LEVEL001
   6
CONTINUOUS
  62
7
  10
 80.7535
  20
 210.960
  30
0.0
   0
VERTEX
   8
LEVEL001
   6
CONTINUOUS
  62
7
  10
 76.1456
  20
 210.960
  30
0.0
   0
VERTEX
   8
LEVEL001
   6
CONTINUOUS
  62
7
  10
 76.1456
  20
 212.112
  30
0.0
   0
SEQEND
   0
ARC
   8
LEVEL001
   6
CONTINUOUS
  62
7
  10
 69.2337
  20
 206.527
  30
0.0
  40
 8.06380
  50
0.0
  51
 21.8012
   0
ARC
   8
LEVEL001
   6
CONTINUOUS
  62
7
  10
 87.6652
  20
 206.527
  30
0.0
  40
 8.06380
  50
 158.199
  51
 180.000
   0
LINE
   8
LEVEL001
   6
CONTINUOUS
  62
7
  10
 80.1782
  20
 209.522
  30
0.0
  11
 80.7535
  21
 210.960
  31
0.0
   0
LINE
   8
LEVEL001
   6
CONTINUOUS
  62
7
  10
 76.1456
  20
 210.960
  30
0.0
  11
 76.7208
  21
 209.522
  31
0.0
   0
POLYLINE
   8
LEVEL001
   6
CONTINUOUS
  62
7
  66
1
  10
0.0
  20
0.0
  30
0.0
  70
0
   0
VERTEX
   8
LEVEL001
   6
CONTINUOUS
  62
7
  10
 77.2975
  20
 206.527
  30
0.0
   0
VERTEX
   8
LEVEL001
   6
CONTINUOUS
  62
7
  10
 77.2975
  20
 203.472
  30
0.0
   0
VERTEX
   8
LEVEL001
   6
CONTINUOUS
  62
7
  10
 79.6014
  20
 203.472
  30
0.0
   0
VERTEX
   8
LEVEL001
   6
CONTINUOUS
  62
7
  10
 79.6014
  20
 206.527
  30
0.0
   0
SEQEND
   0
POLYLINE
   8
LEVEL001
   6
CONTINUOUS
  62
7
  66
1
  10
0.0
  20
0.0
  30
0.0
  70
0
   0
VERTEX
   8
LEVEL001
   6
CONTINUOUS
  62
7
  10
 119.920
  20
 212.112
  30
0.0
   0
VERTEX
   8
LEVEL001
   6
CONTINUOUS
  62
7
  10
 119.920
  20
 210.960
  30
0.0
   0
VERTEX
   8
LEVEL001
   6
CONTINUOUS
  62
7
  10
 124.528
  20
 210.960
  30
0.0
   0
VERTEX
   8
LEVEL001
   6
CONTINUOUS
  62
7
  10
 124.528
  20
 212.112
  30
0.0
   0
SEQEND
   0
LINE
   8
LEVEL001
   6
CONTINUOUS
  62
7
  10
 120.496
  20
 209.522
  30
0.0
  11
 119.920
  21
 210.960
  31
0.0
   0
ARC
   8
LEVEL001
   6
CONTINUOUS
  62
7
  10
 113.009
  20
 206.527
  30
0.0
  40
 8.06380
  50
0.0
  51
 21.8001
   0
LINE
   8
LEVEL001
   6
CONTINUOUS
  62
7
  10
 124.528
  20
 210.960
  30
0.0
  11
 123.953
  21
 209.522
  31
0.0
   0
ARC
   8
LEVEL001
   6
CONTINUOUS
  62
7
  10
 131.440
  20
 206.527
  30
0.0
  40
 8.06380
  50
 158.199
  51
 180.001
   0
POLYLINE
   8
LEVEL001
   6
CONTINUOUS
  62
7
  66
1
  10
0.0
  20
0.0
  30
0.0
  70
0
   0
VERTEX
   8
LEVEL001
   6
CONTINUOUS
  62
7
  10
 123.376
  20
 206.527
  30
0.0
   0
VERTEX
   8
LEVEL001
   6
CONTINUOUS
  62
7
  10
 123.376
  20
 203.472
  30
0.0
   0
VERTEX
   8
LEVEL001
   6
CONTINUOUS
  62
7
  10
 121.072
  20
 203.472
  30
0.0
   0
VERTEX
   8
LEVEL001
   6
CONTINUOUS
  62
7
  10
 121.072
  20
 206.527
  30
0.0
   0
SEQEND
   0
LINE
   8
LEVEL001
   6
CONTINUOUS
  62
7
  10
 76.1456
  20
 212.112
  30
0.0
  11
 80.7535
  21
 212.112
  31
0.0
   0
LINE
   8
LEVEL001
   6
CONTINUOUS
  62
7
  10
 124.528
  20
 212.112
  30
0.0
  11
 119.920
  21
 212.112
  31
0.0
   0
ARC
   8
LEVEL001
   6
CONTINUOUS
  62
7
  10
 100.337
  20
 233.744
  30
0.0
  40
 45.1829
  50
 50.4022
  51
 129.598
   0
ARC
   8
LEVEL001
   6
CONTINUOUS
  62
7
  10
 100.337
  20
 235.440
  30
0.0
  40
 41.7590
  50
 46.3972
  51
 133.603
   0
ARC
   8
LEVEL001
   6
CONTINUOUS
  62
7
  10
 100.337
  20
-8.49016
  30
0.0
  40
 287.993
  50
 84.4967
  51
 95.5033
   0
ARC
   8
LEVEL001
   6
CONTINUOUS
  62
7
  10
 127.128
  20
 269.575
  30
0.0
  40
 8.63978
  50
 2.00048
  51
 84.4970
   0
ARC
   8
LEVEL001
   6
CONTINUOUS
  62
7
  10
 73.5460
  20
 269.575
  30
0.0
  40
 8.63978
  50
 95.5042
  51
 178.000
   0
LINE
   8
LEVEL001
   6
CONTINUOUS
  62
7
  10
 64.9316
  20
 269.876
  30
0.0
  11
 64.8856
  21
 268.559
  31
0.0
   0
LINE
   8
LEVEL001
   6
CONTINUOUS
  62
7
  10
 135.742
  20
 269.876
  30
0.0
  11
 135.788
  21
 268.559
  31
0.0
   0
LINE
   8
LEVEL001
   6
CONTINUOUS
  62
7
  10
 125.969
  20
 227.664
  30
0.0
  11
 118.481
  21
 227.664
  31
0.0
   0
LINE
   8
LEVEL001
   6
CONTINUOUS
  62
7
  10
 74.7049
  20
 227.664
  30
0.0
  11
 82.1930
  21
 227.664
  31
0.0
   0
LINE
   8
LEVEL001
   6
CONTINUOUS
  62
7
  10
 74.7049
  20
 225.360
  30
0.0
  11
 74.7049
  21
 227.664
  31
0.0
   0
LINE
   8
LEVEL001
   6
CONTINUOUS
  62
7
  10
 82.1930
  20
 225.360
  30
0.0
  11
 82.1930
  21
 227.664
  31
0.0
   0
LINE
   8
LEVEL001
   6
CONTINUOUS
  62
7
  10
 118.480
  20
 225.361
  30
0.0
  11
 118.480
  21
 227.665
  31
0.0
   0
LINE
   8
LEVEL001
   6
CONTINUOUS
  62
7
  10
 125.969
  20
 225.360
  30
0.0
  11
 125.969
  21
 227.664
  31
0.0
   0
LINE
   8
LEVEL001
   6
CONTINUOUS
  62
7
  10
 126.256
  20
 229.968
  30
0.0
  11
 118.192
  21
 229.968
  31
0.0
   0
LINE
   8
LEVEL001
   6
CONTINUOUS
  62
7
  10
 74.4177
  20
 229.968
  30
0.0
  11
 82.4813
  21
 229.968
  31
0.0
   0
LINE
   8
LEVEL001
   6
CONTINUOUS
  62
7
  10
 117.905
  20
 223.056
  30
0.0
  11
 82.7695
  21
 223.056
  31
0.0
   0
LINE
   8
LEVEL001
   6
CONTINUOUS
  62
7
  10
 127.985
  20
 223.632
  30
0.0
  11
 116.465
  21
 223.632
  31
0.0
   0
LINE
   8
LEVEL001
   6
CONTINUOUS
  62
7
  10
 84.2089
  20
 223.632
  30
0.0
  11
 72.6890
  21
 223.632
  31
0.0
   0
LINE
   8
LEVEL001
   6
DASHDOT
  62
7
  10
 122.224
  20
 202.430
  30
0.0
  11
 122.224
  21
 202.395
  31
0.0
   0
LINE
   8
LEVEL001
   6
DASHDOT
  62
7
  10
 122.224
  20
 221.753
  30
0.0
  11
 122.224
  21
 221.729
  31
0.0
   0
LINE
   8
LEVEL001
   6
DASHDOT
  62
7
  10
 78.4495
  20
 202.430
  30
0.0
  11
 78.4495
  21
 202.395
  31
0.0
   0
LINE
   8
LEVEL001
   6
DASHDOT
  62
7
  10
 78.4495
  20
 221.753
  30
0.0
  11
 78.4495
  21
 221.729
  31
0.0
   0
LINE
   8
LEVEL001
   6
DASHDOT
  62
7
  10
 132.016
  20
 271.830
  30
0.0
  11
 132.016
  21
 259.031
  31
0.0
   0
LINE
   8
LEVEL001
   6
DASHDOT
  62
7
  10
 68.6578
  20
 271.830
  30
0.0
  11
 68.6578
  21
 259.031
  31
0.0
   0
LINE
   8
LEVEL001
   6
CONTINUOUS
  62
7
  10
 74.4164
  20
 253.007
  30
0.0
  11
 74.4165
  21
 249.551
  31
0.0
   0
LINE
   8
LEVEL001
   6
CONTINUOUS
  62
7
  10
 74.4165
  20
 249.551
  30
0.0
  11
 75.0816
  21
 248.399
  31
0.0
   0
LINE
   8
LEVEL001
   6
CONTINUOUS
  62
7
  10
 75.0816
  20
 248.399
  30
0.0
  11
 82.1925
  21
 248.399
  31
0.0
   0
LINE
   8
LEVEL001
   6
CONTINUOUS
  62
7
  10
 75.0816
  20
 248.399
  30
0.0
  11
 75.0815
  21
 254.159
  31
0.0
   0
LINE
   8
LEVEL001
   6
CONTINUOUS
  62
7
  10
 75.0815
  20
 254.159
  30
0.0
  11
 74.4164
  21
 253.007
  31
0.0
   0
LINE
   8
LEVEL001
   6
CONTINUOUS
  62
7
  10
 82.1923
  20
 254.159
  30
0.0
  11
 75.0815
  21
 254.159
  31
0.0
   0
LINE
   8
LEVEL001
   6
CONTINUOUS
  62
7
  10
 126.257
  20
 253.007
  30
0.0
  11
 126.257
  21
 249.551
  31
0.0
   0
LINE
   8
LEVEL001
   6
CONTINUOUS
  62
7
  10
 126.257
  20
 249.551
  30
0.0
  11
 125.592
  21
 248.399
  31
0.0
   0
LINE
   8
LEVEL001
   6
CONTINUOUS
  62
7
  10
 125.592
  20
 248.399
  30
0.0
  11
 118.481
  21
 248.399
  31
0.0
   0
LINE
   8
LEVEL001
   6
CONTINUOUS
  62
7
  10
 125.592
  20
 248.399
  30
0.0
  11
 125.592
  21
 254.159
  31
0.0
   0
LINE
   8
LEVEL001
   6
CONTINUOUS
  62
7
  10
 125.592
  20
 254.159
  30
0.0
  11
 126.257
  21
 253.007
  31
0.0
   0
LINE
   8
LEVEL001
   6
CONTINUOUS
  62
7
  10
 118.481
  20
 254.159
  30
0.0
  11
 125.592
  21
 254.159
  31
0.0
   0
ARC
   8
LEVEL001
   6
CONTINUOUS
  62
7
  10
 127.021
  20
 253.583
  30
0.0
  40
 3.45591
  50
 89.9989
  51
 170.411
   0
ARC
   8
LEVEL001
   6
CONTINUOUS
  62
7
  10
 100.337
  20
 251.279
  30
0.0
  40
 23.0394
  50
 7.17998
  51
 29.8340
   0
ARC
   8
LEVEL001
   6
CONTINUOUS
  62
7
  10
 100.337
  20
 251.280
  30
0.0
  40
 23.0394
  50
 330.165
  51
 352.818
   0
ARC
   8
LEVEL001
   6
CONTINUOUS
  62
7
  10
 100.337
  20
 251.280
  30
0.0
  40
 23.3274
  50
 329.748
  51
 352.907
   0
ARC
   8
LEVEL001
   6
CONTINUOUS
  62
7
  10
 70.8239
  20
 227.664
  30
0.0
  40
 4.60800
  50
 182.000
  51
 270.000
   0
LINE
   8
LEVEL001
   6
CONTINUOUS
  62
7
  10
 74.1297
  20
 223.056
  30
0.0
  11
 70.8239
  21
 223.056
  31
0.0
   0
ARC
   8
LEVEL001
   6
CONTINUOUS
  62
7
  10
 129.850
  20
 227.664
  30
0.0
  40
 4.60800
  50
 270.000
  51
 358.000
   0
LINE
   8
LEVEL001
   6
CONTINUOUS
  62
7
  10
 126.544
  20
 223.056
  30
0.0
  11
 129.850
  21
 223.056
  31
0.0
   0
LINE
   8
LEVEL001
   6
CONTINUOUS
  62
7
  10
 135.788
  20
 265.679
  30
0.0
  11
 134.455
  21
 227.504
  31
0.0
   0
ARC
   8
LEVEL001
   6
CONTINUOUS
  62
7
  10
 74.7073
  20
 257.998
  30
0.0
  40
 3.45600
  50
 291.082
  51
 345.313
   0
ARC
   8
LEVEL001
   6
CONTINUOUS
  62
7
  10
 100.337
  20
 251.279
  30
0.0
  40
 23.0394
  50
 150.166
  51
 165.312
   0
ARC
   8
LEVEL001
   6
CONTINUOUS
  62
7
  10
 74.7073
  20
 244.561
  30
0.0
  40
 3.45600
  50
 14.6867
  51
 68.9179
   0
ARC
   8
LEVEL001
   6
CONTINUOUS
  62
7
  10
 77.2970
  20
 251.279
  30
0.0
  40
 3.74400
  50
 111.079
  51
 248.921
   0
ARC
   8
LEVEL001
   6
CONTINUOUS
  62
7
  10
 100.337
  20
 251.280
  30
0.0
  40
 23.0394
  50
 194.690
  51
 209.835
   0
ARC
   8
LEVEL001
   6
CONTINUOUS
  62
7
  10
 74.7631
  20
 243.321
  30
0.0
  40
 3.45600
  50
 17.2843
  51
 72.3374
   0
ARC
   8
LEVEL001
   6
CONTINUOUS
  62
7
  10
 77.2970
  20
 251.279
  30
0.0
  40
 4.89600
  50
 163.988
  51
 252.340
   0
ARC
   8
LEVEL001
   6
CONTINUOUS
  62
7
  10
 100.337
  20
 251.280
  30
0.0
  40
 23.3274
  50
 197.287
  51
 210.253
   0
LINE
   8
LEVEL001
   6
CONTINUOUS
  62
7
  10
 67.8148
  20
 250.709
  30
0.0
  11
 76.3177
  21
 266.111
  31
0.0
   0
LINE
   8
LEVEL001
   6
CONTINUOUS
  62
7
  10
 65.9426
  20
 251.793
  30
0.0
  11
 74.1784
  21
 266.051
  31
0.0
   0
LINE
   8
LEVEL001
   6
CONTINUOUS
  62
7
  10
 66.9389
  20
 251.218
  30
0.0
  11
 74.7735
  21
 264.788
  31
0.0
   0
LINE
   8
LEVEL001
   6
CONTINUOUS
  62
7
  10
 70.5322
  20
 249.590
  30
0.0
  11
 76.2315
  21
 266.234
  31
0.0
   0
POLYLINE
   8
LEVEL001
   6
CONTINUOUS
  62
7
  66
1
  10
0.0
  20
0.0
  30
0.0
  70
0
   0
VERTEX
   8
LEVEL001
   6
CONTINUOUS
  62
7
  10
 74.7735
  20
 264.788
  30
0.0
   0
VERTEX
   8
LEVEL001
   6
CONTINUOUS
  62
7
  10
 74.7735
  20
 264.788
  30
0.0
   0
VERTEX
   8
LEVEL001
   6
CONTINUOUS
  62
7
  10
 74.7820
  20
 264.801
  30
0.0
   0
VERTEX
   8
LEVEL001
   6
CONTINUOUS
  62
7
  10
 74.7906
  20
 264.814
  30
0.0
   0
VERTEX
   8
LEVEL001
   6
CONTINUOUS
  62
7
  10
 74.7992
  20
 264.827
  30
0.0
   0
VERTEX
   8
LEVEL001
   6
CONTINUOUS
  62
7
  10
 74.8079
  20
 264.841
  30
0.0
   0
VERTEX
   8
LEVEL001
   6
CONTINUOUS
  62
7
  10
 74.8167
  20
 264.854
  30
0.0
   0
VERTEX
   8
LEVEL001
   6
CONTINUOUS
  62
7
  10
 74.8257
  20
 264.868
  30
0.0
   0
VERTEX
   8
LEVEL001
   6
CONTINUOUS
  62
7
  10
 74.8349
  20
 264.881
  30
0.0
   0
VERTEX
   8
LEVEL001
   6
CONTINUOUS
  62
7
  10
 74.8444
  20
 264.895
  30
0.0
   0
VERTEX
   8
LEVEL001
   6
CONTINUOUS
  62
7
  10
 74.8540
  20
 264.909
  30
0.0
   0
VERTEX
   8
LEVEL001
   6
CONTINUOUS
  62
7
  10
 74.8640
  20
 264.923
  30
0.0
   0
VERTEX
   8
LEVEL001
   6
CONTINUOUS
  62
7
  10
 74.8742
  20
 264.937
  30
0.0
   0
VERTEX
   8
LEVEL001
   6
CONTINUOUS
  62
7
  10
 74.8849
  20
 264.951
  30
0.0
   0
VERTEX
   8
LEVEL001
   6
CONTINUOUS
  62
7
  10
 74.8959
  20
 264.966
  30
0.0
   0
VERTEX
   8
LEVEL001
   6
CONTINUOUS
  62
7
  10
 74.9073
  20
 264.981
  30
0.0
   0
VERTEX
   8
LEVEL001
   6
CONTINUOUS
  62
7
  10
 74.9315
  20
 265.012
  30
0.0
   0
VERTEX
   8
LEVEL001
   6
CONTINUOUS
  62
7
  10
 74.9315
  20
 265.012
  30
0.0
   0
VERTEX
   8
LEVEL001
   6
CONTINUOUS
  62
7
  10
 74.9443
  20
 265.027
  30
0.0
   0
VERTEX
   8
LEVEL001
   6
CONTINUOUS
  62
7
  10
 74.9576
  20
 265.043
  30
0.0
   0
VERTEX
   8
LEVEL001
   6
CONTINUOUS
  62
7
  10
 74.9714
  20
 265.060
  30
0.0
   0
VERTEX
   8
LEVEL001
   6
CONTINUOUS
  62
7
  10
 74.9856
  20
 265.077
  30
0.0
   0
VERTEX
   8
LEVEL001
   6
CONTINUOUS
  62
7
  10
 75.0003
  20
 265.095
  30
0.0
   0
VERTEX
   8
LEVEL001
   6
CONTINUOUS
  62
7
  10
 75.0153
  20
 265.113
  30
0.0
   0
VERTEX
   8
LEVEL001
   6
CONTINUOUS
  62
7
  10
 75.0308
  20
 265.132
  30
0.0
   0
VERTEX
   8
LEVEL001
   6
CONTINUOUS
  62
7
  10
 75.0466
  20
 265.153
  30
0.0
   0
VERTEX
   8
LEVEL001
   6
CONTINUOUS
  62
7
  10
 75.0627
  20
 265.174
  30
0.0
   0
VERTEX
   8
LEVEL001
   6
CONTINUOUS
  62
7
  10
 75.0792
  20
 265.196
  30
0.0
   0
VERTEX
   8
LEVEL001
   6
CONTINUOUS
  62
7
  10
 75.0960
  20
 265.219
  30
0.0
   0
VERTEX
   8
LEVEL001
   6
CONTINUOUS
  62
7
  10
 75.1131
  20
 265.243
  30
0.0
   0
VERTEX
   8
LEVEL001
   6
CONTINUOUS
  62
7
  10
 75.1305
  20
 265.269
  30
0.0
   0
VERTEX
   8
LEVEL001
   6
CONTINUOUS
  62
7
  10
 75.1481
  20
 265.296
  30
0.0
   0
VERTEX
   8
LEVEL001
   6
CONTINUOUS
  62
7
  10
 75.1839
  20
 265.354
  30
0.0
   0
VERTEX
   8
LEVEL001
   6
CONTINUOUS
  62
7
  10
 75.1839
  20
 265.354
  30
0.0
   0
VERTEX
   8
LEVEL001
   6
CONTINUOUS
  62
7
  10
 75.2022
  20
 265.385
  30
0.0
   0
VERTEX
   8
LEVEL001
   6
CONTINUOUS
  62
7
  10
 75.2205
  20
 265.418
  30
0.0
   0
VERTEX
   8
LEVEL001
   6
CONTINUOUS
  62
7
  10
 75.2390
  20
 265.452
  30
0.0
   0
VERTEX
   8
LEVEL001
   6
CONTINUOUS
  62
7
  10
 75.2575
  20
 265.487
  30
0.0
   0
VERTEX
   8
LEVEL001
   6
CONTINUOUS
  62
7
  10
 75.2761
  20
 265.523
  30
0.0
   0
VERTEX
   8
LEVEL001
   6
CONTINUOUS
  62
7
  10
 75.2946
  20
 265.560
  30
0.0
   0
VERTEX
   8
LEVEL001
   6
CONTINUOUS
  62
7
  10
 75.3130
  20
 265.597
  30
0.0
   0
VERTEX
   8
LEVEL001
   6
CONTINUOUS
  62
7
  10
 75.3313
  20
 265.634
  30
0.0
   0
VERTEX
   8
LEVEL001
   6
CONTINUOUS
  62
7
  10
 75.3494
  20
 265.671
  30
0.0
   0
VERTEX
   8
LEVEL001
   6
CONTINUOUS
  62
7
  10
 75.3673
  20
 265.708
  30
0.0
   0
VERTEX
   8
LEVEL001
   6
CONTINUOUS
  62
7
  10
 75.3849
  20
 265.745
  30
0.0
   0
VERTEX
   8
LEVEL001
   6
CONTINUOUS
  62
7
  10
 75.4023
  20
 265.781
  30
0.0
   0
VERTEX
   8
LEVEL001
   6
CONTINUOUS
  62
7
  10
 75.4193
  20
 265.817
  30
0.0
   0
VERTEX
   8
LEVEL001
   6
CONTINUOUS
  62
7
  10
 75.4358
  20
 265.852
  30
0.0
   0
VERTEX
   8
LEVEL001
   6
CONTINUOUS
  62
7
  10
 75.4677
  20
 265.917
  30
0.0
   0
VERTEX
   8
LEVEL001
   6
CONTINUOUS
  62
7
  10
 75.4677
  20
 265.917
  30
0.0
   0
VERTEX
   8
LEVEL001
   6
CONTINUOUS
  62
7
  10
 75.4828
  20
 265.948
  30
0.0
   0
VERTEX
   8
LEVEL001
   6
CONTINUOUS
  62
7
  10
 75.4975
  20
 265.978
  30
0.0
   0
VERTEX
   8
LEVEL001
   6
CONTINUOUS
  62
7
  10
 75.5118
  20
 266.006
  30
0.0
   0
VERTEX
   8
LEVEL001
   6
CONTINUOUS
  62
7
  10
 75.5258
  20
 266.033
  30
0.0
   0
VERTEX
   8
LEVEL001
   6
CONTINUOUS
  62
7
  10
 75.5395
  20
 266.059
  30
0.0
   0
VERTEX
   8
LEVEL001
   6
CONTINUOUS
  62
7
  10
 75.5530
  20
 266.085
  30
0.0
   0
VERTEX
   8
LEVEL001
   6
CONTINUOUS
  62
7
  10
 75.5664
  20
 266.109
  30
0.0
   0
VERTEX
   8
LEVEL001
   6
CONTINUOUS
  62
7
  10
 75.5797
  20
 266.133
  30
0.0
   0
VERTEX
   8
LEVEL001
   6
CONTINUOUS
  62
7
  10
 75.5931
  20
 266.157
  30
0.0
   0
VERTEX
   8
LEVEL001
   6
CONTINUOUS
  62
7
  10
 75.6065
  20
 266.180
  30
0.0
   0
VERTEX
   8
LEVEL001
   6
CONTINUOUS
  62
7
  10
 75.6200
  20
 266.203
  30
0.0
   0
VERTEX
   8
LEVEL001
   6
CONTINUOUS
  62
7
  10
 75.6338
  20
 266.226
  30
0.0
   0
VERTEX
   8
LEVEL001
   6
CONTINUOUS
  62
7
  10
 75.6478
  20
 266.249
  30
0.0
   0
VERTEX
   8
LEVEL001
   6
CONTINUOUS
  62
7
  10
 75.6621
  20
 266.272
  30
0.0
   0
VERTEX
   8
LEVEL001
   6
CONTINUOUS
  62
7
  10
 75.6921
  20
 266.320
  30
0.0
   0
VERTEX
   8
LEVEL001
   6
CONTINUOUS
  62
7
  10
 75.6921
  20
 266.320
  30
0.0
   0
VERTEX
   8
LEVEL001
   6
CONTINUOUS
  62
7
  10
 75.7079
  20
 266.344
  30
0.0
   0
VERTEX
   8
LEVEL001
   6
CONTINUOUS
  62
7
  10
 75.7240
  20
 266.369
  30
0.0
   0
VERTEX
   8
LEVEL001
   6
CONTINUOUS
  62
7
  10
 75.7404
  20
 266.394
  30
0.0
   0
VERTEX
   8
LEVEL001
   6
CONTINUOUS
  62
7
  10
 75.7569
  20
 266.419
  30
0.0
   0
VERTEX
   8
LEVEL001
   6
CONTINUOUS
  62
7
  10
 75.7733
  20
 266.444
  30
0.0
   0
VERTEX
   8
LEVEL001
   6
CONTINUOUS
  62
7
  10
 75.7896
  20
 266.469
  30
0.0
   0
VERTEX
   8
LEVEL001
   6
CONTINUOUS
  62
7
  10
 75.8056
  20
 266.494
  30
0.0
   0
VERTEX
   8
LEVEL001
   6
CONTINUOUS
  62
7
  10
 75.8211
  20
 266.519
  30
0.0
   0
VERTEX
   8
LEVEL001
   6
CONTINUOUS
  62
7
  10
 75.8360
  20
 266.543
  30
0.0
   0
VERTEX
   8
LEVEL001
   6
CONTINUOUS
  62
7
  10
 75.8501
  20
 266.566
  30
0.0
   0
VERTEX
   8
LEVEL001
   6
CONTINUOUS
  62
7
  10
 75.8634
  20
 266.589
  30
0.0
   0
VERTEX
   8
LEVEL001
   6
CONTINUOUS
  62
7
  10
 75.8756
  20
 266.611
  30
0.0
   0
VERTEX
   8
LEVEL001
   6
CONTINUOUS
  62
7
  10
 75.8866
  20
 266.632
  30
0.0
   0
VERTEX
   8
LEVEL001
   6
CONTINUOUS
  62
7
  10
 75.8964
  20
 266.652
  30
0.0
   0
VERTEX
   8
LEVEL001
   6
CONTINUOUS
  62
7
  10
 75.9113
  20
 266.687
  30
0.0
   0
VERTEX
   8
LEVEL001
   6
CONTINUOUS
  62
7
  10
 75.9113
  20
 266.687
  30
0.0
   0
VERTEX
   8
LEVEL001
   6
CONTINUOUS
  62
7
  10
 75.9162
  20
 266.703
  30
0.0
   0
VERTEX
   8
LEVEL001
   6
CONTINUOUS
  62
7
  10
 75.9195
  20
 266.717
  30
0.0
   0
VERTEX
   8
LEVEL001
   6
CONTINUOUS
  62
7
  10
 75.9214
  20
 266.730
  30
0.0
   0
VERTEX
   8
LEVEL001
   6
CONTINUOUS
  62
7
  10
 75.9219
  20
 266.742
  30
0.0
   0
VERTEX
   8
LEVEL001
   6
CONTINUOUS
  62
7
  10
 75.9213
  20
 266.752
  30
0.0
   0
VERTEX
   8
LEVEL001
   6
CONTINUOUS
  62
7
  10
 75.9196
  20
 266.762
  30
0.0
   0
VERTEX
   8
LEVEL001
   6
CONTINUOUS
  62
7
  10
 75.9170
  20
 266.771
  30
0.0
   0
VERTEX
   8
LEVEL001
   6
CONTINUOUS
  62
7
  10
 75.9136
  20
 266.779
  30
0.0
   0
VERTEX
   8
LEVEL001
   6
CONTINUOUS
  62
7
  10
 75.9096
  20
 266.786
  30
0.0
   0
VERTEX
   8
LEVEL001
   6
CONTINUOUS
  62
7
  10
 75.9051
  20
 266.793
  30
0.0
   0
VERTEX
   8
LEVEL001
   6
CONTINUOUS
  62
7
  10
 75.9002
  20
 266.799
  30
0.0
   0
VERTEX
   8
LEVEL001
   6
CONTINUOUS
  62
7
  10
 75.8952
  20
 266.804
  30
0.0
   0
VERTEX
   8
LEVEL001
   6
CONTINUOUS
  62
7
  10
 75.8901
  20
 266.810
  30
0.0
   0
VERTEX
   8
LEVEL001
   6
CONTINUOUS
  62
7
  10
 75.8851
  20
 266.815
  30
0.0
   0
VERTEX
   8
LEVEL001
   6
CONTINUOUS
  62
7
  10
 75.8758
  20
 266.825
  30
0.0
   0
VERTEX
   8
LEVEL001
   6
CONTINUOUS
  62
7
  10
 75.8758
  20
 266.825
  30
0.0
   0
VERTEX
   8
LEVEL001
   6
CONTINUOUS
  62
7
  10
 75.8718
  20
 266.830
  30
0.0
   0
VERTEX
   8
LEVEL001
   6
CONTINUOUS
  62
7
  10
 75.8683
  20
 266.836
  30
0.0
   0
VERTEX
   8
LEVEL001
   6
CONTINUOUS
  62
7
  10
 75.8651
  20
 266.841
  30
0.0
   0
VERTEX
   8
LEVEL001
   6
CONTINUOUS
  62
7
  10
 75.8623
  20
 266.846
  30
0.0
   0
VERTEX
   8
LEVEL001
   6
CONTINUOUS
  62
7
  10
 75.8597
  20
 266.852
  30
0.0
   0
VERTEX
   8
LEVEL001
   6
CONTINUOUS
  62
7
  10
 75.8572
  20
 266.857
  30
0.0
   0
VERTEX
   8
LEVEL001
   6
CONTINUOUS
  62
7
  10
 75.8549
  20
 266.862
  30
0.0
   0
VERTEX
   8
LEVEL001
   6
CONTINUOUS
  62
7
  10
 75.8527
  20
 266.868
  30
0.0
   0
VERTEX
   8
LEVEL001
   6
CONTINUOUS
  62
7
  10
 75.8504
  20
 266.873
  30
0.0
   0
VERTEX
   8
LEVEL001
   6
CONTINUOUS
  62
7
  10
 75.8481
  20
 266.878
  30
0.0
   0
VERTEX
   8
LEVEL001
   6
CONTINUOUS
  62
7
  10
 75.8457
  20
 266.883
  30
0.0
   0
VERTEX
   8
LEVEL001
   6
CONTINUOUS
  62
7
  10
 75.8430
  20
 266.888
  30
0.0
   0
VERTEX
   8
LEVEL001
   6
CONTINUOUS
  62
7
  10
 75.8401
  20
 266.893
  30
0.0
   0
VERTEX
   8
LEVEL001
   6
CONTINUOUS
  62
7
  10
 75.8369
  20
 266.898
  30
0.0
   0
VERTEX
   8
LEVEL001
   6
CONTINUOUS
  62
7
  10
 75.8292
  20
 266.906
  30
0.0
   0
VERTEX
   8
LEVEL001
   6
CONTINUOUS
  62
7
  10
 75.8292
  20
 266.906
  30
0.0
   0
VERTEX
   8
LEVEL001
   6
CONTINUOUS
  62
7
  10
 75.8247
  20
 266.910
  30
0.0
   0
VERTEX
   8
LEVEL001
   6
CONTINUOUS
  62
7
  10
 75.8197
  20
 266.914
  30
0.0
   0
VERTEX
   8
LEVEL001
   6
CONTINUOUS
  62
7
  10
 75.8143
  20
 266.918
  30
0.0
   0
VERTEX
   8
LEVEL001
   6
CONTINUOUS
  62
7
  10
 75.8085
  20
 266.921
  30
0.0
   0
VERTEX
   8
LEVEL001
   6
CONTINUOUS
  62
7
  10
 75.8024
  20
 266.924
  30
0.0
   0
VERTEX
   8
LEVEL001
   6
CONTINUOUS
  62
7
  10
 75.7960
  20
 266.927
  30
0.0
   0
VERTEX
   8
LEVEL001
   6
CONTINUOUS
  62
7
  10
 75.7894
  20
 266.930
  30
0.0
   0
VERTEX
   8
LEVEL001
   6
CONTINUOUS
  62
7
  10
 75.7827
  20
 266.933
  30
0.0
   0
VERTEX
   8
LEVEL001
   6
CONTINUOUS
  62
7
  10
 75.7758
  20
 266.935
  30
0.0
   0
VERTEX
   8
LEVEL001
   6
CONTINUOUS
  62
7
  10
 75.7688
  20
 266.938
  30
0.0
   0
VERTEX
   8
LEVEL001
   6
CONTINUOUS
  62
7
  10
 75.7618
  20
 266.940
  30
0.0
   0
VERTEX
   8
LEVEL001
   6
CONTINUOUS
  62
7
  10
 75.7549
  20
 266.942
  30
0.0
   0
VERTEX
   8
LEVEL001
   6
CONTINUOUS
  62
7
  10
 75.7480
  20
 266.944
  30
0.0
   0
VERTEX
   8
LEVEL001
   6
CONTINUOUS
  62
7
  10
 75.7412
  20
 266.946
  30
0.0
   0
VERTEX
   8
LEVEL001
   6
CONTINUOUS
  62
7
  10
 75.7282
  20
 266.949
  30
0.0
   0
VERTEX
   8
LEVEL001
   6
CONTINUOUS
  62
7
  10
 75.7282
  20
 266.949
  30
0.0
   0
VERTEX
   8
LEVEL001
   6
CONTINUOUS
  62
7
  10
 75.7220
  20
 266.951
  30
0.0
   0
VERTEX
   8
LEVEL001
   6
CONTINUOUS
  62
7
  10
 75.7161
  20
 266.952
  30
0.0
   0
VERTEX
   8
LEVEL001
   6
CONTINUOUS
  62
7
  10
 75.7103
  20
 266.954
  30
0.0
   0
VERTEX
   8
LEVEL001
   6
CONTINUOUS
  62
7
  10
 75.7048
  20
 266.955
  30
0.0
   0
VERTEX
   8
LEVEL001
   6
CONTINUOUS
  62
7
  10
 75.6993
  20
 266.957
  30
0.0
   0
VERTEX
   8
LEVEL001
   6
CONTINUOUS
  62
7
  10
 75.6940
  20
 266.958
  30
0.0
   0
VERTEX
   8
LEVEL001
   6
CONTINUOUS
  62
7
  10
 75.6888
  20
 266.960
  30
0.0
   0
VERTEX
   8
LEVEL001
   6
CONTINUOUS
  62
7
  10
 75.6836
  20
 266.962
  30
0.0
   0
VERTEX
   8
LEVEL001
   6
CONTINUOUS
  62
7
  10
 75.6784
  20
 266.964
  30
0.0
   0
VERTEX
   8
LEVEL001
   6
CONTINUOUS
  62
7
  10
 75.6732
  20
 266.965
  30
0.0
   0
VERTEX
   8
LEVEL001
   6
CONTINUOUS
  62
7
  10
 75.6679
  20
 266.967
  30
0.0
   0
VERTEX
   8
LEVEL001
   6
CONTINUOUS
  62
7
  10
 75.6626
  20
 266.970
  30
0.0
   0
VERTEX
   8
LEVEL001
   6
CONTINUOUS
  62
7
  10
 75.6572
  20
 266.972
  30
0.0
   0
VERTEX
   8
LEVEL001
   6
CONTINUOUS
  62
7
  10
 75.6517
  20
 266.975
  30
0.0
   0
VERTEX
   8
LEVEL001
   6
CONTINUOUS
  62
7
  10
 75.6400
  20
 266.981
  30
0.0
   0
VERTEX
   8
LEVEL001
   6
CONTINUOUS
  62
7
  10
 75.6400
  20
 266.981
  30
0.0
   0
VERTEX
   8
LEVEL001
   6
CONTINUOUS
  62
7
  10
 75.6339
  20
 266.984
  30
0.0
   0
VERTEX
   8
LEVEL001
   6
CONTINUOUS
  62
7
  10
 75.6276
  20
 266.988
  30
0.0
   0
VERTEX
   8
LEVEL001
   6
CONTINUOUS
  62
7
  10
 75.6211
  20
 266.992
  30
0.0
   0
VERTEX
   8
LEVEL001
   6
CONTINUOUS
  62
7
  10
 75.6143
  20
 266.997
  30
0.0
   0
VERTEX
   8
LEVEL001
   6
CONTINUOUS
  62
7
  10
 75.6075
  20
 267.001
  30
0.0
   0
VERTEX
   8
LEVEL001
   6
CONTINUOUS
  62
7
  10
 75.6004
  20
 267.006
  30
0.0
   0
VERTEX
   8
LEVEL001
   6
CONTINUOUS
  62
7
  10
 75.5932
  20
 267.011
  30
0.0
   0
VERTEX
   8
LEVEL001
   6
CONTINUOUS
  62
7
  10
 75.5859
  20
 267.016
  30
0.0
   0
VERTEX
   8
LEVEL001
   6
CONTINUOUS
  62
7
  10
 75.5785
  20
 267.021
  30
0.0
   0
VERTEX
   8
LEVEL001
   6
CONTINUOUS
  62
7
  10
 75.5710
  20
 267.026
  30
0.0
   0
VERTEX
   8
LEVEL001
   6
CONTINUOUS
  62
7
  10
 75.5634
  20
 267.032
  30
0.0
   0
VERTEX
   8
LEVEL001
   6
CONTINUOUS
  62
7
  10
 75.5557
  20
 267.037
  30
0.0
   0
VERTEX
   8
LEVEL001
   6
CONTINUOUS
  62
7
  10
 75.5480
  20
 267.043
  30
0.0
   0
VERTEX
   8
LEVEL001
   6
CONTINUOUS
  62
7
  10
 75.5402
  20
 267.049
  30
0.0
   0
VERTEX
   8
LEVEL001
   6
CONTINUOUS
  62
7
  10
 75.5246
  20
 267.060
  30
0.0
   0
SEQEND
   0
POLYLINE
   8
LEVEL001
   6
CONTINUOUS
  62
7
  66
1
  10
0.0
  20
0.0
  30
0.0
  70
0
   0
VERTEX
   8
LEVEL001
   6
CONTINUOUS
  62
7
  10
 76.3082
  20
 266.098
  30
0.0
   0
VERTEX
   8
LEVEL001
   6
CONTINUOUS
  62
7
  10
 76.3082
  20
 266.098
  30
0.0
   0
VERTEX
   8
LEVEL001
   6
CONTINUOUS
  62
7
  10
 76.3160
  20
 266.106
  30
0.0
   0
VERTEX
   8
LEVEL001
   6
CONTINUOUS
  62
7
  10
 76.3238
  20
 266.114
  30
0.0
   0
VERTEX
   8
LEVEL001
   6
CONTINUOUS
  62
7
  10
 76.3316
  20
 266.122
  30
0.0
   0
VERTEX
   8
LEVEL001
   6
CONTINUOUS
  62
7
  10
 76.3394
  20
 266.131
  30
0.0
   0
VERTEX
   8
LEVEL001
   6
CONTINUOUS
  62
7
  10
 76.3472
  20
 266.139
  30
0.0
   0
VERTEX
   8
LEVEL001
   6
CONTINUOUS
  62
7
  10
 76.3551
  20
 266.147
  30
0.0
   0
VERTEX
   8
LEVEL001
   6
CONTINUOUS
  62
7
  10
 76.3630
  20
 266.156
  30
0.0
   0
VERTEX
   8
LEVEL001
   6
CONTINUOUS
  62
7
  10
 76.3710
  20
 266.165
  30
0.0
   0
VERTEX
   8
LEVEL001
   6
CONTINUOUS
  62
7
  10
 76.3790
  20
 266.174
  30
0.0
   0
VERTEX
   8
LEVEL001
   6
CONTINUOUS
  62
7
  10
 76.3871
  20
 266.184
  30
0.0
   0
VERTEX
   8
LEVEL001
   6
CONTINUOUS
  62
7
  10
 76.3952
  20
 266.193
  30
0.0
   0
VERTEX
   8
LEVEL001
   6
CONTINUOUS
  62
7
  10
 76.4034
  20
 266.204
  30
0.0
   0
VERTEX
   8
LEVEL001
   6
CONTINUOUS
  62
7
  10
 76.4117
  20
 266.214
  30
0.0
   0
VERTEX
   8
LEVEL001
   6
CONTINUOUS
  62
7
  10
 76.4201
  20
 266.225
  30
0.0
   0
VERTEX
   8
LEVEL001
   6
CONTINUOUS
  62
7
  10
 76.4372
  20
 266.249
  30
0.0
   0
VERTEX
   8
LEVEL001
   6
CONTINUOUS
  62
7
  10
 76.4372
  20
 266.249
  30
0.0
   0
VERTEX
   8
LEVEL001
   6
CONTINUOUS
  62
7
  10
 76.4458
  20
 266.261
  30
0.0
   0
VERTEX
   8
LEVEL001
   6
CONTINUOUS
  62
7
  10
 76.4545
  20
 266.274
  30
0.0
   0
VERTEX
   8
LEVEL001
   6
CONTINUOUS
  62
7
  10
 76.4632
  20
 266.287
  30
0.0
   0
VERTEX
   8
LEVEL001
   6
CONTINUOUS
  62
7
  10
 76.4719
  20
 266.301
  30
0.0
   0
VERTEX
   8
LEVEL001
   6
CONTINUOUS
  62
7
  10
 76.4805
  20
 266.314
  30
0.0
   0
VERTEX
   8
LEVEL001
   6
CONTINUOUS
  62
7
  10
 76.4889
  20
 266.328
  30
0.0
   0
VERTEX
   8
LEVEL001
   6
CONTINUOUS
  62
7
  10
 76.4971
  20
 266.341
  30
0.0
   0
VERTEX
   8
LEVEL001
   6
CONTINUOUS
  62
7
  10
 76.5051
  20
 266.355
  30
0.0
   0
VERTEX
   8
LEVEL001
   6
CONTINUOUS
  62
7
  10
 76.5127
  20
 266.368
  30
0.0
   0
VERTEX
   8
LEVEL001
   6
CONTINUOUS
  62
7
  10
 76.5200
  20
 266.380
  30
0.0
   0
VERTEX
   8
LEVEL001
   6
CONTINUOUS
  62
7
  10
 76.5269
  20
 266.393
  30
0.0
   0
VERTEX
   8
LEVEL001
   6
CONTINUOUS
  62
7
  10
 76.5333
  20
 266.404
  30
0.0
   0
VERTEX
   8
LEVEL001
   6
CONTINUOUS
  62
7
  10
 76.5392
  20
 266.415
  30
0.0
   0
VERTEX
   8
LEVEL001
   6
CONTINUOUS
  62
7
  10
 76.5446
  20
 266.425
  30
0.0
   0
VERTEX
   8
LEVEL001
   6
CONTINUOUS
  62
7
  10
 76.5534
  20
 266.443
  30
0.0
   0
VERTEX
   8
LEVEL001
   6
CONTINUOUS
  62
7
  10
 76.5534
  20
 266.443
  30
0.0
   0
VERTEX
   8
LEVEL001
   6
CONTINUOUS
  62
7
  10
 76.5568
  20
 266.450
  30
0.0
   0
VERTEX
   8
LEVEL001
   6
CONTINUOUS
  62
7
  10
 76.5595
  20
 266.456
  30
0.0
   0
VERTEX
   8
LEVEL001
   6
CONTINUOUS
  62
7
  10
 76.5616
  20
 266.461
  30
0.0
   0
VERTEX
   8
LEVEL001
   6
CONTINUOUS
  62
7
  10
 76.5631
  20
 266.466
  30
0.0
   0
VERTEX
   8
LEVEL001
   6
CONTINUOUS
  62
7
  10
 76.5641
  20
 266.470
  30
0.0
   0
VERTEX
   8
LEVEL001
   6
CONTINUOUS
  62
7
  10
 76.5647
  20
 266.473
  30
0.0
   0
VERTEX
   8
LEVEL001
   6
CONTINUOUS
  62
7
  10
 76.5648
  20
 266.476
  30
0.0
   0
VERTEX
   8
LEVEL001
   6
CONTINUOUS
  62
7
  10
 76.5646
  20
 266.479
  30
0.0
   0
VERTEX
   8
LEVEL001
   6
CONTINUOUS
  62
7
  10
 76.5642
  20
 266.481
  30
0.0
   0
VERTEX
   8
LEVEL001
   6
CONTINUOUS
  62
7
  10
 76.5635
  20
 266.483
  30
0.0
   0
VERTEX
   8
LEVEL001
   6
CONTINUOUS
  62
7
  10
 76.5626
  20
 266.486
  30
0.0
   0
VERTEX
   8
LEVEL001
   6
CONTINUOUS
  62
7
  10
 76.5615
  20
 266.488
  30
0.0
   0
VERTEX
   8
LEVEL001
   6
CONTINUOUS
  62
7
  10
 76.5604
  20
 266.491
  30
0.0
   0
VERTEX
   8
LEVEL001
   6
CONTINUOUS
  62
7
  10
 76.5593
  20
 266.494
  30
0.0
   0
VERTEX
   8
LEVEL001
   6
CONTINUOUS
  62
7
  10
 76.5572
  20
 266.502
  30
0.0
   0
VERTEX
   8
LEVEL001
   6
CONTINUOUS
  62
7
  10
 76.5572
  20
 266.502
  30
0.0
   0
VERTEX
   8
LEVEL001
   6
CONTINUOUS
  62
7
  10
 76.5562
  20
 266.507
  30
0.0
   0
VERTEX
   8
LEVEL001
   6
CONTINUOUS
  62
7
  10
 76.5555
  20
 266.512
  30
0.0
   0
VERTEX
   8
LEVEL001
   6
CONTINUOUS
  62
7
  10
 76.5548
  20
 266.518
  30
0.0
   0
VERTEX
   8
LEVEL001
   6
CONTINUOUS
  62
7
  10
 76.5541
  20
 266.525
  30
0.0
   0
VERTEX
   8
LEVEL001
   6
CONTINUOUS
  62
7
  10
 76.5535
  20
 266.532
  30
0.0
   0
VERTEX
   8
LEVEL001
   6
CONTINUOUS
  62
7
  10
 76.5529
  20
 266.540
  30
0.0
   0
VERTEX
   8
LEVEL001
   6
CONTINUOUS
  62
7
  10
 76.5523
  20
 266.548
  30
0.0
   0
VERTEX
   8
LEVEL001
   6
CONTINUOUS
  62
7
  10
 76.5517
  20
 266.556
  30
0.0
   0
VERTEX
   8
LEVEL001
   6
CONTINUOUS
  62
7
  10
 76.5510
  20
 266.564
  30
0.0
   0
VERTEX
   8
LEVEL001
   6
CONTINUOUS
  62
7
  10
 76.5502
  20
 266.573
  30
0.0
   0
VERTEX
   8
LEVEL001
   6
CONTINUOUS
  62
7
  10
 76.5493
  20
 266.582
  30
0.0
   0
VERTEX
   8
LEVEL001
   6
CONTINUOUS
  62
7
  10
 76.5483
  20
 266.591
  30
0.0
   0
VERTEX
   8
LEVEL001
   6
CONTINUOUS
  62
7
  10
 76.5471
  20
 266.600
  30
0.0
   0
VERTEX
   8
LEVEL001
   6
CONTINUOUS
  62
7
  10
 76.5458
  20
 266.609
  30
0.0
   0
VERTEX
   8
LEVEL001
   6
CONTINUOUS
  62
7
  10
 76.5424
  20
 266.627
  30
0.0
   0
VERTEX
   8
LEVEL001
   6
CONTINUOUS
  62
7
  10
 76.5424
  20
 266.627
  30
0.0
   0
VERTEX
   8
LEVEL001
   6
CONTINUOUS
  62
7
  10
 76.5403
  20
 266.635
  30
0.0
   0
VERTEX
   8
LEVEL001
   6
CONTINUOUS
  62
7
  10
 76.5380
  20
 266.644
  30
0.0
   0
VERTEX
   8
LEVEL001
   6
CONTINUOUS
  62
7
  10
 76.5354
  20
 266.652
  30
0.0
   0
VERTEX
   8
LEVEL001
   6
CONTINUOUS
  62
7
  10
 76.5326
  20
 266.660
  30
0.0
   0
VERTEX
   8
LEVEL001
   6
CONTINUOUS
  62
7
  10
 76.5295
  20
 266.668
  30
0.0
   0
VERTEX
   8
LEVEL001
   6
CONTINUOUS
  62
7
  10
 76.5262
  20
 266.675
  30
0.0
   0
VERTEX
   8
LEVEL001
   6
CONTINUOUS
  62
7
  10
 76.5226
  20
 266.683
  30
0.0
   0
VERTEX
   8
LEVEL001
   6
CONTINUOUS
  62
7
  10
 76.5188
  20
 266.690
  30
0.0
   0
VERTEX
   8
LEVEL001
   6
CONTINUOUS
  62
7
  10
 76.5147
  20
 266.697
  30
0.0
   0
VERTEX
   8
LEVEL001
   6
CONTINUOUS
  62
7
  10
 76.5103
  20
 266.703
  30
0.0
   0
VERTEX
   8
LEVEL001
   6
CONTINUOUS
  62
7
  10
 76.5057
  20
 266.710
  30
0.0
   0
VERTEX
   8
LEVEL001
   6
CONTINUOUS
  62
7
  10
 76.5009
  20
 266.715
  30
0.0
   0
VERTEX
   8
LEVEL001
   6
CONTINUOUS
  62
7
  10
 76.4958
  20
 266.721
  30
0.0
   0
VERTEX
   8
LEVEL001
   6
CONTINUOUS
  62
7
  10
 76.4905
  20
 266.726
  30
0.0
   0
VERTEX
   8
LEVEL001
   6
CONTINUOUS
  62
7
  10
 76.4791
  20
 266.736
  30
0.0
   0
VERTEX
   8
LEVEL001
   6
CONTINUOUS
  62
7
  10
 76.4791
  20
 266.736
  30
0.0
   0
VERTEX
   8
LEVEL001
   6
CONTINUOUS
  62
7
  10
 76.4730
  20
 266.740
  30
0.0
   0
VERTEX
   8
LEVEL001
   6
CONTINUOUS
  62
7
  10
 76.4668
  20
 266.744
  30
0.0
   0
VERTEX
   8
LEVEL001
   6
CONTINUOUS
  62
7
  10
 76.4603
  20
 266.748
  30
0.0
   0
VERTEX
   8
LEVEL001
   6
CONTINUOUS
  62
7
  10
 76.4536
  20
 266.751
  30
0.0
   0
VERTEX
   8
LEVEL001
   6
CONTINUOUS
  62
7
  10
 76.4468
  20
 266.755
  30
0.0
   0
VERTEX
   8
LEVEL001
   6
CONTINUOUS
  62
7
  10
 76.4398
  20
 266.758
  30
0.0
   0
VERTEX
   8
LEVEL001
   6
CONTINUOUS
  62
7
  10
 76.4327
  20
 266.761
  30
0.0
   0
VERTEX
   8
LEVEL001
   6
CONTINUOUS
  62
7
  10
 76.4255
  20
 266.765
  30
0.0
   0
VERTEX
   8
LEVEL001
   6
CONTINUOUS
  62
7
  10
 76.4183
  20
 266.768
  30
0.0
   0
VERTEX
   8
LEVEL001
   6
CONTINUOUS
  62
7
  10
 76.4110
  20
 266.771
  30
0.0
   0
VERTEX
   8
LEVEL001
   6
CONTINUOUS
  62
7
  10
 76.4036
  20
 266.775
  30
0.0
   0
VERTEX
   8
LEVEL001
   6
CONTINUOUS
  62
7
  10
 76.3963
  20
 266.779
  30
0.0
   0
VERTEX
   8
LEVEL001
   6
CONTINUOUS
  62
7
  10
 76.3889
  20
 266.783
  30
0.0
   0
VERTEX
   8
LEVEL001
   6
CONTINUOUS
  62
7
  10
 76.3816
  20
 266.788
  30
0.0
   0
VERTEX
   8
LEVEL001
   6
CONTINUOUS
  62
7
  10
 76.3671
  20
 266.798
  30
0.0
   0
VERTEX
   8
LEVEL001
   6
CONTINUOUS
  62
7
  10
 76.3671
  20
 266.798
  30
0.0
   0
VERTEX
   8
LEVEL001
   6
CONTINUOUS
  62
7
  10
 76.3600
  20
 266.804
  30
0.0
   0
VERTEX
   8
LEVEL001
   6
CONTINUOUS
  62
7
  10
 76.3530
  20
 266.810
  30
0.0
   0
VERTEX
   8
LEVEL001
   6
CONTINUOUS
  62
7
  10
 76.3460
  20
 266.817
  30
0.0
   0
VERTEX
   8
LEVEL001
   6
CONTINUOUS
  62
7
  10
 76.3391
  20
 266.824
  30
0.0
   0
VERTEX
   8
LEVEL001
   6
CONTINUOUS
  62
7
  10
 76.3322
  20
 266.831
  30
0.0
   0
VERTEX
   8
LEVEL001
   6
CONTINUOUS
  62
7
  10
 76.3254
  20
 266.838
  30
0.0
   0
VERTEX
   8
LEVEL001
   6
CONTINUOUS
  62
7
  10
 76.3185
  20
 266.846
  30
0.0
   0
VERTEX
   8
LEVEL001
   6
CONTINUOUS
  62
7
  10
 76.3115
  20
 266.853
  30
0.0
   0
VERTEX
   8
LEVEL001
   6
CONTINUOUS
  62
7
  10
 76.3046
  20
 266.860
  30
0.0
   0
VERTEX
   8
LEVEL001
   6
CONTINUOUS
  62
7
  10
 76.2975
  20
 266.866
  30
0.0
   0
VERTEX
   8
LEVEL001
   6
CONTINUOUS
  62
7
  10
 76.2904
  20
 266.873
  30
0.0
   0
VERTEX
   8
LEVEL001
   6
CONTINUOUS
  62
7
  10
 76.2832
  20
 266.879
  30
0.0
   0
VERTEX
   8
LEVEL001
   6
CONTINUOUS
  62
7
  10
 76.2759
  20
 266.884
  30
0.0
   0
VERTEX
   8
LEVEL001
   6
CONTINUOUS
  62
7
  10
 76.2684
  20
 266.889
  30
0.0
   0
VERTEX
   8
LEVEL001
   6
CONTINUOUS
  62
7
  10
 76.2530
  20
 266.897
  30
0.0
   0
VERTEX
   8
LEVEL001
   6
CONTINUOUS
  62
7
  10
 76.2530
  20
 266.897
  30
0.0
   0
VERTEX
   8
LEVEL001
   6
CONTINUOUS
  62
7
  10
 76.2450
  20
 266.900
  30
0.0
   0
VERTEX
   8
LEVEL001
   6
CONTINUOUS
  62
7
  10
 76.2369
  20
 266.902
  30
0.0
   0
VERTEX
   8
LEVEL001
   6
CONTINUOUS
  62
7
  10
 76.2286
  20
 266.903
  30
0.0
   0
VERTEX
   8
LEVEL001
   6
CONTINUOUS
  62
7
  10
 76.2203
  20
 266.904
  30
0.0
   0
VERTEX
   8
LEVEL001
   6
CONTINUOUS
  62
7
  10
 76.2118
  20
 266.904
  30
0.0
   0
VERTEX
   8
LEVEL001
   6
CONTINUOUS
  62
7
  10
 76.2034
  20
 266.903
  30
0.0
   0
VERTEX
   8
LEVEL001
   6
CONTINUOUS
  62
7
  10
 76.1949
  20
 266.902
  30
0.0
   0
VERTEX
   8
LEVEL001
   6
CONTINUOUS
  62
7
  10
 76.1865
  20
 266.901
  30
0.0
   0
VERTEX
   8
LEVEL001
   6
CONTINUOUS
  62
7
  10
 76.1781
  20
 266.899
  30
0.0
   0
VERTEX
   8
LEVEL001
   6
CONTINUOUS
  62
7
  10
 76.1698
  20
 266.897
  30
0.0
   0
VERTEX
   8
LEVEL001
   6
CONTINUOUS
  62
7
  10
 76.1616
  20
 266.894
  30
0.0
   0
VERTEX
   8
LEVEL001
   6
CONTINUOUS
  62
7
  10
 76.1536
  20
 266.891
  30
0.0
   0
VERTEX
   8
LEVEL001
   6
CONTINUOUS
  62
7
  10
 76.1457
  20
 266.888
  30
0.0
   0
VERTEX
   8
LEVEL001
   6
CONTINUOUS
  62
7
  10
 76.1381
  20
 266.886
  30
0.0
   0
VERTEX
   8
LEVEL001
   6
CONTINUOUS
  62
7
  10
 76.1236
  20
 266.879
  30
0.0
   0
VERTEX
   8
LEVEL001
   6
CONTINUOUS
  62
7
  10
 76.1236
  20
 266.879
  30
0.0
   0
VERTEX
   8
LEVEL001
   6
CONTINUOUS
  62
7
  10
 76.1167
  20
 266.877
  30
0.0
   0
VERTEX
   8
LEVEL001
   6
CONTINUOUS
  62
7
  10
 76.1102
  20
 266.874
  30
0.0
   0
VERTEX
   8
LEVEL001
   6
CONTINUOUS
  62
7
  10
 76.1039
  20
 266.871
  30
0.0
   0
VERTEX
   8
LEVEL001
   6
CONTINUOUS
  62
7
  10
 76.0978
  20
 266.868
  30
0.0
   0
VERTEX
   8
LEVEL001
   6
CONTINUOUS
  62
7
  10
 76.0920
  20
 266.865
  30
0.0
   0
VERTEX
   8
LEVEL001
   6
CONTINUOUS
  62
7
  10
 76.0863
  20
 266.862
  30
0.0
   0
VERTEX
   8
LEVEL001
   6
CONTINUOUS
  62
7
  10
 76.0809
  20
 266.860
  30
0.0
   0
VERTEX
   8
LEVEL001
   6
CONTINUOUS
  62
7
  10
 76.0755
  20
 266.857
  30
0.0
   0
VERTEX
   8
LEVEL001
   6
CONTINUOUS
  62
7
  10
 76.0703
  20
 266.854
  30
0.0
   0
VERTEX
   8
LEVEL001
   6
CONTINUOUS
  62
7
  10
 76.0652
  20
 266.852
  30
0.0
   0
VERTEX
   8
LEVEL001
   6
CONTINUOUS
  62
7
  10
 76.0601
  20
 266.849
  30
0.0
   0
VERTEX
   8
LEVEL001
   6
CONTINUOUS
  62
7
  10
 76.0551
  20
 266.846
  30
0.0
   0
VERTEX
   8
LEVEL001
   6
CONTINUOUS
  62
7
  10
 76.0502
  20
 266.843
  30
0.0
   0
VERTEX
   8
LEVEL001
   6
CONTINUOUS
  62
7
  10
 76.0452
  20
 266.841
  30
0.0
   0
VERTEX
   8
LEVEL001
   6
CONTINUOUS
  62
7
  10
 76.0353
  20
 266.835
  30
0.0
   0
VERTEX
   8
LEVEL001
   6
CONTINUOUS
  62
7
  10
 76.0353
  20
 266.835
  30
0.0
   0
VERTEX
   8
LEVEL001
   6
CONTINUOUS
  62
7
  10
 76.0302
  20
 266.832
  30
0.0
   0
VERTEX
   8
LEVEL001
   6
CONTINUOUS
  62
7
  10
 76.0251
  20
 266.829
  30
0.0
   0
VERTEX
   8
LEVEL001
   6
CONTINUOUS
  62
7
  10
 76.0199
  20
 266.826
  30
0.0
   0
VERTEX
   8
LEVEL001
   6
CONTINUOUS
  62
7
  10
 76.0147
  20
 266.823
  30
0.0
   0
VERTEX
   8
LEVEL001
   6
CONTINUOUS
  62
7
  10
 76.0094
  20
 266.820
  30
0.0
   0
VERTEX
   8
LEVEL001
   6
CONTINUOUS
  62
7
  10
 76.0041
  20
 266.817
  30
0.0
   0
VERTEX
   8
LEVEL001
   6
CONTINUOUS
  62
7
  10
 75.9988
  20
 266.814
  30
0.0
   0
VERTEX
   8
LEVEL001
   6
CONTINUOUS
  62
7
  10
 75.9934
  20
 266.811
  30
0.0
   0
VERTEX
   8
LEVEL001
   6
CONTINUOUS
  62
7
  10
 75.9880
  20
 266.808
  30
0.0
   0
VERTEX
   8
LEVEL001
   6
CONTINUOUS
  62
7
  10
 75.9826
  20
 266.805
  30
0.0
   0
VERTEX
   8
LEVEL001
   6
CONTINUOUS
  62
7
  10
 75.9771
  20
 266.801
  30
0.0
   0
VERTEX
   8
LEVEL001
   6
CONTINUOUS
  62
7
  10
 75.9716
  20
 266.798
  30
0.0
   0
VERTEX
   8
LEVEL001
   6
CONTINUOUS
  62
7
  10
 75.9662
  20
 266.795
  30
0.0
   0
VERTEX
   8
LEVEL001
   6
CONTINUOUS
  62
7
  10
 75.9607
  20
 266.792
  30
0.0
   0
VERTEX
   8
LEVEL001
   6
CONTINUOUS
  62
7
  10
 75.9497
  20
 266.785
  30
0.0
   0
SEQEND
   0
ARC
   8
LEVEL001
   6
CONTINUOUS
  62
7
  10
 75.5696
  20
 265.679
  30
0.0
  40
 1.44000
  50
 39.8009
  51
 165.039
   0
LINE
   8
LEVEL001
   6
CONTINUOUS
  62
7
  10
 69.5813
  20
 249.939
  30
0.0
  11
 73.8219
  21
 261.590
  31
0.0
   0
LINE
   8
LEVEL001
   6
CONTINUOUS
  62
7
  10
 65.9413
  20
 251.794
  30
0.0
  11
 61.5627
  21
 244.210
  31
0.0
   0
LINE
   8
LEVEL001
   6
CONTINUOUS
  62
7
  10
 67.9366
  20
 250.642
  30
0.0
  11
 63.5580
  21
 243.058
  31
0.0
   0
LINE
   8
LEVEL001
   6
CONTINUOUS
  62
7
  10
 61.5627
  20
 244.210
  30
0.0
  11
 63.5580
  21
 243.058
  31
0.0
   0
LINE
   8
LEVEL001
   6
CONTINUOUS
  62
7
  10
 60.9624
  20
 243.803
  30
0.0
  11
 66.3248
  21
 253.117
  31
0.0
   0
LINE
   8
LEVEL001
   6
CONTINUOUS
  62
7
  10
 63.5861
  20
 242.246
  30
0.0
  11
 68.8807
  21
 251.534
  31
0.0
   0
LINE
   8
LEVEL001
   6
CONTINUOUS
  62
7
  10
 63.5861
  20
 242.246
  30
0.0
  11
 61.8563
  21
 240.851
  31
0.0
   0
LINE
   8
LEVEL001
   6
CONTINUOUS
  62
7
  10
 68.4988
  20
 250.333
  30
0.0
  11
 65.5036
  21
 242.104
  31
0.0
   0
LINE
   8
LEVEL001
   6
CONTINUOUS
  62
7
  10
 70.6637
  20
 249.545
  30
0.0
  11
 67.6686
  21
 241.316
  31
0.0
   0
LINE
   8
LEVEL001
   6
CONTINUOUS
  62
7
  10
 65.5036
  20
 242.104
  30
0.0
  11
 67.6686
  21
 241.316
  31
0.0
   0
LINE
   8
LEVEL001
   6
CONTINUOUS
  62
7
  10
 64.9830
  20
 241.599
  30
0.0
  11
 68.6466
  21
 251.702
  31
0.0
   0
LINE
   8
LEVEL001
   6
CONTINUOUS
  62
7
  10
 67.8372
  20
 240.521
  30
0.0
  11
 71.4386
  21
 250.588
  31
0.0
   0
LINE
   8
LEVEL001
   6
CONTINUOUS
  62
7
  10
 64.9830
  20
 241.599
  30
0.0
  11
 65.1720
  21
 239.452
  31
0.0
   0
LINE
   8
LEVEL001
   6
CONTINUOUS
  62
7
  10
 67.8372
  20
 240.521
  30
0.0
  11
 66.3758
  21
 238.847
  31
0.0
   0
LINE
   8
LEVEL001
   6
CONTINUOUS
  62
7
  10
 49.9145
  20
 222.893
  30
0.0
  11
 62.0571
  21
 243.924
  31
0.0
   0
LINE
   8
LEVEL001
   6
CONTINUOUS
  62
7
  10
 51.0347
  20
 222.237
  30
0.0
  11
 63.1812
  21
 243.275
  31
0.0
   0
LINE
   8
LEVEL001
   6
CONTINUOUS
  62
7
  10
 57.4296
  20
 218.251
  30
0.0
  11
 66.0400
  21
 241.908
  31
0.0
   0
LINE
   8
LEVEL001
   6
CONTINUOUS
  62
7
  10
 58.6058
  20
 217.688
  30
0.0
  11
 67.2597
  21
 241.464
  31
0.0
   0
LINE
   8
LEVEL001
   6
CONTINUOUS
  62
7
  10
 63.9252
  20
 248.302
  30
0.0
  11
 65.9205
  21
 247.150
  31
0.0
   0
LINE
   8
LEVEL001
   6
CONTINUOUS
  62
7
  10
 65.9413
  20
 251.794
  30
0.0
  11
 67.9366
  21
 250.642
  31
0.0
   0
LINE
   8
LEVEL001
   6
CONTINUOUS
  62
7
  10
 68.4988
  20
 250.333
  30
0.0
  11
 70.6637
  21
 249.545
  31
0.0
   0
LINE
   8
LEVEL001
   6
CONTINUOUS
  62
7
  10
 67.1196
  20
 246.544
  30
0.0
  11
 69.2847
  21
 245.756
  31
0.0
   0
LINE
   8
LEVEL001
   6
CONTINUOUS
  62
7
  10
 68.5002
  20
 250.332
  30
0.0
  11
 70.2320
  21
 255.087
  31
0.0
   0
LINE
   8
LEVEL001
   6
CONTINUOUS
  62
7
  10
 60.9624
  20
 243.803
  30
0.0
  11
 60.7757
  21
 241.656
  31
0.0
   0
LINE
   8
LEVEL001
   6
CONTINUOUS
  62
7
  10
 57.4296
  20
 218.251
  30
0.0
  11
 58.6058
  21
 217.688
  31
0.0
   0
LINE
   8
LEVEL001
   6
CONTINUOUS
  62
7
  10
 65.8650
  20
 237.632
  30
0.0
  11
 66.2187
  21
 227.503
  31
0.0
   0
LINE
   8
LEVEL001
   6
CONTINUOUS
  62
7
  10
 65.5817
  20
 245.747
  30
0.0
  11
 65.6612
  21
 243.469
  31
0.0
   0
LINE
   8
LEVEL001
   6
CONTINUOUS
  62
7
  10
 64.8856
  20
 265.679
  30
0.0
  11
 65.3815
  21
 251.478
  31
0.0
   0
LINE
   8
LEVEL001
   6
CONTINUOUS
  62
7
  10
 65.1872
  20
 257.039
  30
0.0
  11
 68.9729
  21
 257.039
  31
0.0
   0
ARC
   8
LEVEL001
   6
CONTINUOUS
  62
7
  10
 69.2690
  20
 253.583
  30
0.0
  40
 3.45600
  50
 343.991
  51
 25.0375
   0
ARC
   8
LEVEL001
   6
CONTINUOUS
  62
7
  10
 75.5708
  20
 265.679
  30
0.0
  40
 4.03190
  50
 257.436
  51
 78.6559
   0
ARC
   8
LEVEL001
   6
CONTINUOUS
  62
7
  10
 75.5696
  20
 265.679
  30
0.0
  40
 4.03190
  50
 179.998
  51
 219.808
   0
LINE
   8
LEVEL001
   6
DASHDOT
  62
1
  10
 71.6476
  20
 251.272
  30
0.0
  11
 128.952
  21
 251.272
  31
0.0
   0
LINE
   8
LEVEL001
   6
DASHDOT
  62
1
  10
 78.4495
  20
 230.633
  30
0.0
  11
 78.4495
  21
 202.430
  31
0.0
   0
LINE
   8
LEVEL001
   6
DASHDOT
  62
1
  10
 122.224
  20
 230.633
  30
0.0
  11
 122.224
  21
 202.430
  31
0.0
   0
LINE
   8
LEVEL001
   6
CONTINUOUS
  62
7
  10
 49.9145
  20
 222.893
  30
0.0
  11
 51.0347
  21
 222.237
  31
0.0
   0
LINE
   8
LEVEL001
   6
CONTINUOUS
  62
1
  10
 127.592
  20
 248.399
  30
0.0
  11
 157.337
  21
 248.399
  31
0.0
   0
LINE
   8
LEVEL001
   6
CONTINUOUS
  62
1
  10
 127.592
  20
 254.159
  30
0.0
  11
 157.337
  21
 254.159
  31
0.0
   0
LINE
   8
LEVEL001
   6
CONTINUOUS
  62
1
  10
 155.337
  20
 248.399
  30
0.0
  11
 155.337
  21
 254.159
  31
0.0
   0
LINE
   8
LEVEL001
   6
CONTINUOUS
  62
1
  10
 155.337
  20
 254.159
  30
0.0
  11
 155.337
  21
 276.060
  31
0.0
   0
LINE
   8
LEVEL001
   6
CONTINUOUS
  62
1
  10
 155.337
  20
 248.399
  30
0.0
  11
 154.810
  21
 244.399
  31
0.0
   0
LINE
   8
LEVEL001
   6
CONTINUOUS
  62
1
  10
 155.337
  20
 248.399
  30
0.0
  11
 155.863
  21
 244.399
  31
0.0
   0
LINE
   8
LEVEL001
   6
CONTINUOUS
  62
1
  10
 155.337
  20
 254.159
  30
0.0
  11
 155.863
  21
 258.159
  31
0.0
   0
LINE
   8
LEVEL001
   6
CONTINUOUS
  62
1
  10
 155.337
  20
 254.159
  30
0.0
  11
 154.810
  21
 258.159
  31
0.0
   0
LINE
   8
LEVEL001
   6
CONTINUOUS
  62
1
  10
 155.337
  20
 248.399
  30
0.0
  11
 155.337
  21
 243.399
  31
0.0
   0
LINE
   8
LEVEL001
   6
CONTINUOUS
  62
1
  10
 155.337
  20
 254.159
  30
0.0
  11
 155.337
  21
 276.060
  31
0.0
   0
TEXT
   8
LEVEL001
  62
1
  10
 152.837
  20
 258.060
  30
0.0
  40
 6.00000
   1
%%c10
  50
 90.0000
   7
STANDARD
   0
LINE
   8
LEVEL001
   6
CONTINUOUS
  62
1
  10
 128.544
  20
 213.276
  30
0.0
  11
 172.337
  21
 213.276
  31
0.0
   0
LINE
   8
LEVEL001
   6
CONTINUOUS
  62
1
  10
 130.952
  20
 251.272
  30
0.0
  11
 172.337
  21
 251.272
  31
0.0
   0
LINE
   8
LEVEL001
   6
CONTINUOUS
  62
1
  10
 170.337
  20
 213.276
  30
0.0
  11
 170.337
  21
 251.272
  31
0.0
   0
LINE
   8
LEVEL001
   6
CONTINUOUS
  62
1
  10
 170.337
  20
 213.276
  30
0.0
  11
 170.863
  21
 217.276
  31
0.0
   0
LINE
   8
LEVEL001
   6
CONTINUOUS
  62
1
  10
 170.337
  20
 213.276
  30
0.0
  11
 169.810
  21
 217.276
  31
0.0
   0
LINE
   8
LEVEL001
   6
CONTINUOUS
  62
1
  10
 170.337
  20
 251.272
  30
0.0
  11
 169.810
  21
 247.272
  31
0.0
   0
LINE
   8
LEVEL001
   6
CONTINUOUS
  62
1
  10
 170.337
  20
 251.272
  30
0.0
  11
 170.863
  21
 247.272
  31
0.0
   0
TEXT
   8
LEVEL001
  62
1
  10
 167.765
  20
 226.274
  30
0.0
  40
 6.00000
   1
66
  50
 90.0000
   7
STANDARD
  72
1
  11
 167.765
  21
 232.274
  31
0.0
   0
LINE
   8
LEVEL001
   6
CONTINUOUS
  62
1
  10
 78.4495
  20
 200.430
  30
0.0
  11
 78.4495
  21
 190.280
  31
0.0
   0
LINE
   8
LEVEL001
   6
CONTINUOUS
  62
1
  10
 122.224
  20
 200.430
  30
0.0
  11
 122.224
  21
 190.280
  31
0.0
   0
LINE
   8
LEVEL001
   6
CONTINUOUS
  62
1
  10
 78.4495
  20
 191.280
  30
0.0
  11
 122.224
  21
 191.280
  31
0.0
   0
LINE
   8
LEVEL001
   6
CONTINUOUS
  62
1
  10
 78.4495
  20
 191.280
  30
0.0
  11
 82.4495
  21
 190.753
  31
0.0
   0
LINE
   8
LEVEL001
   6
CONTINUOUS
  62
1
  10
 78.4495
  20
 191.280
  30
0.0
  11
 82.4495
  21
 191.806
  31
0.0
   0
LINE
   8
LEVEL001
   6
CONTINUOUS
  62
1
  10
 122.224
  20
 191.280
  30
0.0
  11
 118.224
  21
 191.806
  31
0.0
   0
LINE
   8
LEVEL001
   6
CONTINUOUS
  62
1
  10
 122.224
  20
 191.280
  30
0.0
  11
 118.224
  21
 190.753
  31
0.0
   0
TEXT
   8
LEVEL001
  62
1
  10
 94.3370
  20
 193.851
  30
0.0
  40
 6.00000
   1
76
   7
STANDARD
  72
1
  11
 100.337
  21
 193.851
  31
0.0
   0
LINE
   8
LEVEL001
   6
CONTINUOUS
  62
1
  10
 64.8856
  20
 263.679
  30
0.0
  11
 64.8856
  21
 174.280
  31
0.0
   0
LINE
   8
LEVEL001
   6
CONTINUOUS
  62
1
  10
 135.788
  20
 263.679
  30
0.0
  11
 135.788
  21
 174.280
  31
0.0
   0
LINE
   8
LEVEL001
   6
CONTINUOUS
  62
1
  10
 64.8856
  20
 176.280
  30
0.0
  11
 135.788
  21
 176.280
  31
0.0
   0
LINE
   8
LEVEL001
   6
CONTINUOUS
  62
1
  10
 64.8856
  20
 176.280
  30
0.0
  11
 68.8856
  21
 175.753
  31
0.0
   0
LINE
   8
LEVEL001
   6
CONTINUOUS
  62
1
  10
 64.8856
  20
 176.280
  30
0.0
  11
 68.8856
  21
 176.806
  31
0.0
   0
LINE
   8
LEVEL001
   6
CONTINUOUS
  62
1
  10
 135.788
  20
 176.280
  30
0.0
  11
 131.788
  21
 176.806
  31
0.0
   0
LINE
   8
LEVEL001
   6
CONTINUOUS
  62
1
  10
 135.788
  20
 176.280
  30
0.0
  11
 131.788
  21
 175.753
  31
0.0
   0
TEXT
   8
LEVEL001
  62
1
  10
 91.3370
  20
 178.851
  30
0.0
  40
 6.00000
   1
125
   7
STANDARD
  72
1
  11
 100.337
  21
 178.851
  31
0.0
   0
POLYLINE
   8
LEVEL001
   6
CONTINUOUS
  62
7
  66
1
  10
0.0
  20
0.0
  30
0.0
  70
0
   0
VERTEX
   8
LEVEL001
   6
CONTINUOUS
  62
7
  10
 121.648
  20
 144.101
  30
0.0
   0
VERTEX
   8
LEVEL001
   6
CONTINUOUS
  62
7
  10
 121.648
  20
 144.446
  30
0.0
   0
VERTEX
   8
LEVEL001
   6
CONTINUOUS
  62
7
  10
 126.256
  20
 144.446
  30
0.0
   0
SEQEND
   0
LINE
   8
LEVEL001
   6
CONTINUOUS
  62
7
  10
 125.680
  20
 144.101
  30
0.0
  11
 126.256
  21
 144.101
  31
0.0
   0
ARC
   8
LEVEL001
   6
CONTINUOUS
  62
7
  10
 123.434
  20
 144.677
  30
0.0
  40
 1.43996
  50
 89.9986
  51
 180.000
   0
LINE
   8
LEVEL001
   6
CONTINUOUS
  62
7
  10
 121.994
  20
 144.446
  30
0.0
  11
 121.994
  21
 144.677
  31
0.0
   0
ARC
   8
LEVEL001
   6
CONTINUOUS
  62
7
  10
 124.470
  20
 144.677
  30
0.0
  40
 1.43996
  50
 359.999
  51
 89.9944
   0
LINE
   8
LEVEL001
   6
CONTINUOUS
  62
7
  10
 125.910
  20
 144.677
  30
0.0
  11
 125.911
  21
 144.446
  31
0.0
   0
LINE
   8
LEVEL001
   6
CONTINUOUS
  62
7
  10
 123.434
  20
 146.117
  30
0.0
  11
 124.471
  21
 146.117
  31
0.0
   0
LINE
   8
LEVEL001
   6
CONTINUOUS
  62
7
  10
 146.416
  20
 134.593
  30
0.0
  11
 146.416
  21
 119.041
  31
0.0
   0
LINE
   8
LEVEL001
   6
CONTINUOUS
  62
7
  10
 145.264
  20
 119.041
  30
0.0
  11
 146.416
  21
 119.041
  31
0.0
   0
LINE
   8
LEVEL001
   6
CONTINUOUS
  62
7
  10
 145.264
  20
 134.593
  30
0.0
  11
 146.416
  21
 134.593
  31
0.0
   0
LINE
   8
LEVEL001
   6
CONTINUOUS
  62
7
  10
 138.640
  20
 134.305
  30
0.0
  11
 145.264
  21
 134.305
  31
0.0
   0
LINE
   8
LEVEL001
   6
CONTINUOUS
  62
7
  10
 136.929
  20
 130.849
  30
0.0
  11
 138.640
  21
 131.577
  31
0.0
   0
LINE
   8
LEVEL001
   6
CONTINUOUS
  62
7
  10
 131.440
  20
 134.554
  30
0.0
  11
 132.304
  21
 134.554
  31
0.0
   0
LINE
   8
LEVEL001
   6
CONTINUOUS
  62
7
  10
 131.440
  20
 119.080
  30
0.0
  11
 132.304
  21
 119.080
  31
0.0
   0
LINE
   8
LEVEL001
   6
CONTINUOUS
  62
7
  10
 116.891
  20
 88.8045
  30
0.0
  11
 116.891
  21
 87.5374
  31
0.0
   0
LINE
   8
LEVEL001
   6
CONTINUOUS
  62
7
  10
 120.646
  20
 88.8045
  30
0.0
  11
 120.646
  21
 87.5374
  31
0.0
   0
LINE
   8
LEVEL001
   6
CONTINUOUS
  62
7
  10
 80.0275
  20
 88.8045
  30
0.0
  11
 80.0275
  21
 87.5374
  31
0.0
   0
LINE
   8
LEVEL001
   6
CONTINUOUS
  62
7
  10
 83.7829
  20
 88.8045
  30
0.0
  11
 83.7829
  21
 87.5374
  31
0.0
   0
ARC
   8
LEVEL001
   6
CONTINUOUS
  62
7
  10
 122.109
  20
 93.9885
  30
0.0
  40
 1.90080
  50
 129.438
  51
 227.839
   0
LINE
   8
LEVEL001
   6
CONTINUOUS
  62
7
  10
 120.902
  20
 95.4565
  30
0.0
  11
 123.088
  21
 97.7208
  31
0.0
   0
LINE
   8
LEVEL001
   6
CONTINUOUS
  62
7
  10
 120.833
  20
 92.5796
  30
0.0
  11
 123.088
  21
 90.2445
  31
0.0
   0
ARC
   8
LEVEL001
   6
CONTINUOUS
  62
7
  10
 115.427
  20
 93.9886
  30
0.0
  40
 1.90080
  50
 312.160
  51
 50.5604
   0
LINE
   8
LEVEL001
   6
CONTINUOUS
  62
7
  10
 116.635
  20
 95.4565
  30
0.0
  11
 114.448
  21
 97.7208
  31
0.0
   0
LINE
   8
LEVEL001
   6
CONTINUOUS
  62
7
  10
 116.703
  20
 92.5796
  30
0.0
  11
 114.448
  21
 90.2445
  31
0.0
   0
ARC
   8
LEVEL001
   6
CONTINUOUS
  62
7
  10
 78.5643
  20
 93.9886
  30
0.0
  40
 1.90080
  50
 312.160
  51
 50.5604
   0
LINE
   8
LEVEL001
   6
CONTINUOUS
  62
7
  10
 79.8402
  20
 92.5796
  30
0.0
  11
 77.5853
  21
 90.2445
  31
0.0
   0
ARC
   8
LEVEL001
   6
CONTINUOUS
  62
7
  10
 85.2460
  20
 93.9885
  30
0.0
  40
 1.90080
  50
 129.436
  51
 227.836
   0
LINE
   8
LEVEL001
   6
CONTINUOUS
  62
7
  10
 84.0386
  20
 95.4565
  30
0.0
  11
 86.2250
  21
 97.7208
  31
0.0
   0
LINE
   8
LEVEL001
   6
CONTINUOUS
  62
7
  10
 83.9701
  20
 92.5796
  30
0.0
  11
 86.2250
  21
 90.2445
  31
0.0
   0
ARC
   8
LEVEL001
   6
CONTINUOUS
  62
7
  10
 125.969
  20
 121.050
  30
0.0
  40
 0.864000
  50
 90.0023
  51
 180.000
   0
LINE
   8
LEVEL001
   6
CONTINUOUS
  62
7
  10
 126.256
  20
 121.914
  30
0.0
  11
 125.969
  21
 121.914
  31
0.0
   0
ARC
   8
LEVEL001
   6
CONTINUOUS
  62
7
  10
 123.953
  20
 99.7367
  30
0.0
  40
 0.576000
  50
 269.997
  51
 0.349489E-2
   0
LINE
   8
LEVEL001
   6
CONTINUOUS
  62
7
  10
 121.063
  20
 99.1607
  30
0.0
  11
 123.953
  21
 99.1607
  31
0.0
   0
LINE
   8
LEVEL001
   6
CONTINUOUS
  62
7
  10
 124.529
  20
 101.503
  30
0.0
  11
 124.529
  21
 99.7368
  31
0.0
   0
LINE
   8
LEVEL001
   6
CONTINUOUS
  62
7
  10
 125.105
  20
 121.050
  30
0.0
  11
 125.105
  21
 103.734
  31
0.0
   0
POLYLINE
   8
LEVEL001
   6
CONTINUOUS
  62
7
  66
1
  10
0.0
  20
0.0
  30
0.0
  70
0
   0
VERTEX
   8
LEVEL001
   6
CONTINUOUS
  62
7
  10
 79.6013
  20
 87.5374
  30
0.0
   0
VERTEX
   8
LEVEL001
   6
CONTINUOUS
  62
7
  10
 79.6013
  20
 86.3854
  30
0.0
   0
VERTEX
   8
LEVEL001
   6
CONTINUOUS
  62
7
  10
 84.2091
  20
 86.3854
  30
0.0
   0
VERTEX
   8
LEVEL001
   6
CONTINUOUS
  62
7
  10
 84.2091
  20
 87.5374
  30
0.0
   0
SEQEND
   0
ARC
   8
LEVEL001
   6
CONTINUOUS
  62
7
  10
 91.1210
  20
 81.9528
  30
0.0
  40
 8.06380
  50
 158.200
  51
 180.002
   0
LINE
   8
LEVEL001
   6
CONTINUOUS
  62
7
  10
 84.2091
  20
 86.3854
  30
0.0
  11
 83.6339
  21
 84.9474
  31
0.0
   0
ARC
   8
LEVEL001
   6
CONTINUOUS
  62
7
  10
 72.6894
  20
 81.9527
  30
0.0
  40
 8.06380
  50
0.0
  51
 21.8001
   0
LINE
   8
LEVEL001
   6
CONTINUOUS
  62
7
  10
 80.1765
  20
 84.9473
  30
0.0
  11
 79.6013
  21
 86.3854
  31
0.0
   0
POLYLINE
   8
LEVEL001
   6
CONTINUOUS
  62
7
  66
1
  10
0.0
  20
0.0
  30
0.0
  70
0
   0
VERTEX
   8
LEVEL001
   6
CONTINUOUS
  62
7
  10
 83.0572
  20
 81.9525
  30
0.0
   0
VERTEX
   8
LEVEL001
   6
CONTINUOUS
  62
7
  10
 83.0572
  20
 78.8976
  30
0.0
   0
VERTEX
   8
LEVEL001
   6
CONTINUOUS
  62
7
  10
 80.7532
  20
 78.8976
  30
0.0
   0
VERTEX
   8
LEVEL001
   6
CONTINUOUS
  62
7
  10
 80.7532
  20
 81.9525
  30
0.0
   0
SEQEND
   0
POLYLINE
   8
LEVEL001
   6
CONTINUOUS
  62
7
  66
1
  10
0.0
  20
0.0
  30
0.0
  70
0
   0
VERTEX
   8
LEVEL001
   6
CONTINUOUS
  62
7
  10
 121.072
  20
 87.5374
  30
0.0
   0
VERTEX
   8
LEVEL001
   6
CONTINUOUS
  62
7
  10
 121.072
  20
 86.3854
  30
0.0
   0
VERTEX
   8
LEVEL001
   6
CONTINUOUS
  62
7
  10
 116.464
  20
 86.3854
  30
0.0
   0
VERTEX
   8
LEVEL001
   6
CONTINUOUS
  62
7
  10
 116.464
  20
 87.5374
  30
0.0
   0
SEQEND
   0
ARC
   8
LEVEL001
   6
CONTINUOUS
  62
7
  10
 109.553
  20
 81.9523
  30
0.0
  40
 8.06380
  50
 0.150233E-2
  51
 21.8034
   0
LINE
   8
LEVEL001
   6
CONTINUOUS
  62
7
  10
 116.464
  20
 86.3854
  30
0.0
  11
 117.039
  21
 84.9474
  31
0.0
   0
ARC
   8
LEVEL001
   6
CONTINUOUS
  62
7
  10
 127.984
  20
 81.9522
  30
0.0
  40
 8.06380
  50
 158.197
  51
 179.998
   0
LINE
   8
LEVEL001
   6
CONTINUOUS
  62
7
  10
 120.497
  20
 84.9473
  30
0.0
  11
 121.072
  21
 86.3854
  31
0.0
   0
POLYLINE
   8
LEVEL001
   6
CONTINUOUS
  62
7
  66
1
  10
0.0
  20
0.0
  30
0.0
  70
0
   0
VERTEX
   8
LEVEL001
   6
CONTINUOUS
  62
7
  10
 117.616
  20
 81.9525
  30
0.0
   0
VERTEX
   8
LEVEL001
   6
CONTINUOUS
  62
7
  10
 117.616
  20
 78.8976
  30
0.0
   0
VERTEX
   8
LEVEL001
   6
CONTINUOUS
  62
7
  10
 119.920
  20
 78.8976
  30
0.0
   0
VERTEX
   8
LEVEL001
   6
CONTINUOUS
  62
7
  10
 119.920
  20
 81.9525
  30
0.0
   0
SEQEND
   0
ARC
   8
LEVEL001
   6
CONTINUOUS
  62
7
  10
 113.945
  20
 134.874
  30
0.0
  40
 1.15197
  50
 270.003
  51
 338.964
   0
ARC
   8
LEVEL001
   6
CONTINUOUS
  62
7
  10
 113.945
  20
 134.874
  30
0.0
  40
 1.15197
  50
 270.004
  51
 338.967
   0
ARC
   8
LEVEL001
   6
CONTINUOUS
  62
7
  10
 118.408
  20
 140.059
  30
0.0
  40
 1.15197
  50
 90.0758
  51
 158.964
   0
LINE
   8
LEVEL001
   6
CONTINUOUS
  62
7
  10
 115.020
  20
 134.460
  30
0.0
  11
 117.333
  21
 140.472
  31
0.0
   0
ARC
   8
LEVEL001
   6
CONTINUOUS
  62
7
  10
 119.344
  20
 144.677
  30
0.0
  40
 0.575986
  50
 179.998
  51
 269.993
   0
ARC
   8
LEVEL001
   6
CONTINUOUS
  62
7
  10
 125.680
  20
 143.525
  30
0.0
  40
 0.575986
  50
 359.998
  51
 90.0108
   0
ARC
   8
LEVEL001
   6
CONTINUOUS
  62
7
  10
 125.968
  20
 141.509
  30
0.0
  40
 0.287993
  50
 270.048
  51
 359.993
   0
LINE
   8
LEVEL001
   6
CONTINUOUS
  62
7
  10
 118.406
  20
 141.211
  30
0.0
  11
 125.968
  21
 141.221
  31
0.0
   0
LINE
   8
LEVEL001
   6
CONTINUOUS
  62
7
  10
 119.344
  20
 144.101
  30
0.0
  11
 125.680
  21
 144.101
  31
0.0
   0
LINE
   8
LEVEL001
   6
CONTINUOUS
  62
7
  10
 100.337
  20
 133.722
  30
0.0
  11
 113.945
  21
 133.722
  31
0.0
   0
LINE
   8
LEVEL001
   6
CONTINUOUS
  62
7
  10
 100.337
  20
 133.722
  30
0.0
  11
 113.945
  21
 133.722
  31
0.0
   0
LINE
   8
LEVEL001
   6
CONTINUOUS
  62
7
  10
 79.6013
  20
 87.5374
  30
0.0
  11
 84.2091
  21
 87.5374
  31
0.0
   0
LINE
   8
LEVEL001
   6
CONTINUOUS
  62
7
  10
 116.464
  20
 87.5374
  30
0.0
  11
 121.072
  21
 87.5374
  31
0.0
   0
LINE
   8
LEVEL001
   6
CONTINUOUS
  62
7
  10
 128.560
  20
 149.850
  30
0.0
  11
 128.560
  21
 103.771
  31
0.0
   0
POLYLINE
   8
LEVEL001
   6
CONTINUOUS
  62
7
  66
1
  10
0.0
  20
0.0
  30
0.0
  70
0
   0
VERTEX
   8
LEVEL001
   6
CONTINUOUS
  62
7
  10
 126.256
  20
 149.850
  30
0.0
   0
VERTEX
   8
LEVEL001
   6
CONTINUOUS
  62
7
  10
 131.440
  20
 149.850
  30
0.0
   0
VERTEX
   8
LEVEL001
   6
CONTINUOUS
  62
7
  10
 131.440
  20
 147.546
  30
0.0
   0
SEQEND
   0
LINE
   8
LEVEL001
   6
CONTINUOUS
  62
7
  10
 131.440
  20
 111.835
  30
0.0
  11
 128.560
  21
 111.835
  31
0.0
   0
POLYLINE
   8
LEVEL001
   6
CONTINUOUS
  62
7
  66
1
  10
0.0
  20
0.0
  30
0.0
  70
0
   0
VERTEX
   8
LEVEL001
   6
CONTINUOUS
  62
7
  10
 128.560
  20
 141.786
  30
0.0
   0
VERTEX
   8
LEVEL001
   6
CONTINUOUS
  62
7
  10
 131.440
  20
 141.786
  30
0.0
   0
VERTEX
   8
LEVEL001
   6
CONTINUOUS
  62
7
  10
 131.440
  20
 111.835
  30
0.0
   0
SEQEND
   0
POLYLINE
   8
LEVEL001
   6
CONTINUOUS
  62
7
  66
1
  10
0.0
  20
0.0
  30
0.0
  70
0
   0
VERTEX
   8
LEVEL001
   6
CONTINUOUS
  62
7
  10
 138.640
  20
 131.577
  30
0.0
   0
VERTEX
   8
LEVEL001
   6
CONTINUOUS
  62
7
  10
 138.640
  20
 143.370
  30
0.0
   0
VERTEX
   8
LEVEL001
   6
CONTINUOUS
  62
7
  10
 132.304
  20
 144.378
  30
0.0
   0
SEQEND
   0
POLYLINE
   8
LEVEL001
   6
CONTINUOUS
  62
7
  66
1
  10
0.0
  20
0.0
  30
0.0
  70
0
   0
VERTEX
   8
LEVEL001
   6
CONTINUOUS
  62
7
  10
 132.304
  20
 119.080
  30
0.0
   0
VERTEX
   8
LEVEL001
   6
CONTINUOUS
  62
7
  10
 132.304
  20
 106.075
  30
0.0
   0
VERTEX
   8
LEVEL001
   6
CONTINUOUS
  62
7
  10
 128.560
  20
 106.075
  30
0.0
   0
SEQEND
   0
POLYLINE
   8
LEVEL001
   6
CONTINUOUS
  62
7
  66
1
  10
0.0
  20
0.0
  30
0.0
  70
0
   0
VERTEX
   8
LEVEL001
   6
CONTINUOUS
  62
7
  10
 128.560
  20
 147.546
  30
0.0
   0
VERTEX
   8
LEVEL001
   6
CONTINUOUS
  62
7
  10
 132.304
  20
 147.546
  30
0.0
   0
VERTEX
   8
LEVEL001
   6
CONTINUOUS
  62
7
  10
 132.304
  20
 134.554
  30
0.0
   0
SEQEND
   0
POLYLINE
   8
LEVEL001
   6
CONTINUOUS
  62
7
  66
1
  10
0.0
  20
0.0
  30
0.0
  70
0
   0
VERTEX
   8
LEVEL001
   6
CONTINUOUS
  62
7
  10
 123.088
  20
 88.8045
  30
0.0
   0
VERTEX
   8
LEVEL001
   6
CONTINUOUS
  62
7
  10
 123.088
  20
 90.2445
  30
0.0
   0
VERTEX
   8
LEVEL001
   6
CONTINUOUS
  62
7
  10
 114.448
  20
 90.2445
  30
0.0
   0
VERTEX
   8
LEVEL001
   6
CONTINUOUS
  62
7
  10
 114.448
  20
 88.8045
  30
0.0
   0
SEQEND
   0
LINE
   8
LEVEL001
   6
CONTINUOUS
  62
7
  10
 123.088
  20
 88.8045
  30
0.0
  11
 114.448
  21
 88.8045
  31
0.0
   0
POLYLINE
   8
LEVEL001
   6
CONTINUOUS
  62
7
  66
1
  10
0.0
  20
0.0
  30
0.0
  70
0
   0
VERTEX
   8
LEVEL001
   6
CONTINUOUS
  62
7
  10
 77.5853
  20
 88.8045
  30
0.0
   0
VERTEX
   8
LEVEL001
   6
CONTINUOUS
  62
7
  10
 77.5853
  20
 90.2445
  30
0.0
   0
VERTEX
   8
LEVEL001
   6
CONTINUOUS
  62
7
  10
 86.2250
  20
 90.2445
  30
0.0
   0
VERTEX
   8
LEVEL001
   6
CONTINUOUS
  62
7
  10
 86.2250
  20
 88.8045
  30
0.0
   0
SEQEND
   0
LINE
   8
LEVEL001
   6
CONTINUOUS
  62
7
  10
 77.5853
  20
 88.8045
  30
0.0
  11
 86.2250
  21
 88.8045
  31
0.0
   0
POLYLINE
   8
LEVEL001
   6
CONTINUOUS
  62
7
  66
1
  10
0.0
  20
0.0
  30
0.0
  70
0
   0
VERTEX
   8
LEVEL001
   6
CONTINUOUS
  62
7
  10
 123.088
  20
 99.1607
  30
0.0
   0
VERTEX
   8
LEVEL001
   6
CONTINUOUS
  62
7
  10
 123.088
  20
 97.7208
  30
0.0
   0
VERTEX
   8
LEVEL001
   6
CONTINUOUS
  62
7
  10
 114.448
  20
 97.7208
  30
0.0
   0
VERTEX
   8
LEVEL001
   6
CONTINUOUS
  62
7
  10
 114.448
  20
 98.9658
  30
0.0
   0
SEQEND
   0
ARC
   8
LEVEL001
   6
CONTINUOUS
  62
7
  10
 125.680
  20
 154.469
  30
0.0
  40
 0.575986
  50
 359.998
  51
 90.0108
   0
ARC
   8
LEVEL001
   6
CONTINUOUS
  62
7
  10
 118.192
  20
 154.469
  30
0.0
  40
 0.575986
  50
 359.998
  51
 89.9933
   0
LINE
   8
LEVEL001
   6
CONTINUOUS
  62
7
  10
 118.768
  20
 144.677
  30
0.0
  11
 118.768
  21
 154.469
  31
0.0
   0
LINE
   8
LEVEL001
   6
CONTINUOUS
  62
7
  10
 126.256
  20
 141.509
  30
0.0
  11
 126.256
  21
 154.469
  31
0.0
   0
LINE
   8
LEVEL001
   6
CONTINUOUS
  62
7
  10
 126.256
  20
 152.154
  30
0.0
  11
 126.256
  21
 101.905
  31
0.0
   0
ARC
   8
LEVEL001
   6
CONTINUOUS
  62
7
  10
 125.426
  20
 100.753
  30
0.0
  40
 1.15200
  50
 89.9995
  51
 148.838
   0
LINE
   8
LEVEL001
   6
CONTINUOUS
  62
7
  10
 126.256
  20
 101.905
  30
0.0
  11
 125.426
  21
 101.905
  31
0.0
   0
POLYLINE
   8
LEVEL001
   6
CONTINUOUS
  62
7
  66
1
  10
0.0
  20
0.0
  30
0.0
  70
0
   0
VERTEX
   8
LEVEL001
   6
CONTINUOUS
  62
7
  10
 126.256
  20
 103.770
  30
0.0
   0
VERTEX
   8
LEVEL001
   6
CONTINUOUS
  62
7
  10
 131.440
  20
 103.770
  30
0.0
   0
VERTEX
   8
LEVEL001
   6
CONTINUOUS
  62
7
  10
 131.440
  20
 106.074
  30
0.0
   0
SEQEND
   0
ARC
   8
LEVEL001
   6
CONTINUOUS
  62
7
  10
 120.497
  20
 103.734
  30
0.0
  40
 4.60800
  50
 271.499
  51
0.0
   0
LINE
   8
LEVEL001
   6
CONTINUOUS
  62
7
  10
 100.337
  20
 98.5963
  30
0.0
  11
 120.617
  21
 99.1274
  31
0.0
   0
LINE
   8
LEVEL001
   6
DASHDOT
  62
7
  10
 81.9053
  20
 100.891
  30
0.0
  11
 81.9053
  21
 77.9583
  31
0.0
   0
LINE
   8
LEVEL001
   6
CONTINUOUS
  62
7
  10
 145.264
  20
 134.593
  30
0.0
  11
 145.264
  21
 119.041
  31
0.0
   0
LINE
   8
LEVEL001
   6
CONTINUOUS
  62
7
  10
 138.640
  20
 119.315
  30
0.0
  11
 145.264
  21
 119.315
  31
0.0
   0
LINE
   8
LEVEL001
   6
CONTINUOUS
  62
7
  10
 136.929
  20
 122.771
  30
0.0
  11
 138.640
  21
 122.044
  31
0.0
   0
POLYLINE
   8
LEVEL001
   6
CONTINUOUS
  62
7
  66
1
  10
0.0
  20
0.0
  30
0.0
  70
0
   0
VERTEX
   8
LEVEL001
   6
CONTINUOUS
  62
7
  10
 138.640
  20
 122.044
  30
0.0
   0
VERTEX
   8
LEVEL001
   6
CONTINUOUS
  62
7
  10
 138.640
  20
 110.250
  30
0.0
   0
VERTEX
   8
LEVEL001
   6
CONTINUOUS
  62
7
  10
 132.304
  20
 109.242
  30
0.0
   0
SEQEND
   0
CIRCLE
   8
LEVEL001
   6
CONTINUOUS
  62
7
  10
 140.945
  20
 126.810
  30
0.0
  40
 1.73463
   0
CIRCLE
   8
LEVEL001
   6
CONTINUOUS
  62
7
  10
 140.945
  20
 126.810
  30
0.0
  40
 2.88664
   0
ARC
   8
LEVEL001
   6
CONTINUOUS
  62
7
  10
 140.938
  20
 126.810
  30
0.0
  40
 4.03908
  50
 270.094
  51
 89.9055
   0
LINE
   8
LEVEL001
   6
CONTINUOUS
  62
7
  10
 131.440
  20
 122.771
  30
0.0
  11
 140.945
  21
 122.771
  31
0.0
   0
LINE
   8
LEVEL001
   6
CONTINUOUS
  62
7
  10
 131.440
  20
 130.849
  30
0.0
  11
 140.945
  21
 130.849
  31
0.0
   0
LINE
   8
LEVEL001
   6
CONTINUOUS
  62
7
  10
 54.2578
  20
 134.593
  30
0.0
  11
 54.2578
  21
 119.041
  31
0.0
   0
LINE
   8
LEVEL001
   6
CONTINUOUS
  62
7
  10
 55.4097
  20
 119.041
  30
0.0
  11
 54.2578
  21
 119.041
  31
0.0
   0
LINE
   8
LEVEL001
   6
CONTINUOUS
  62
7
  10
 69.2335
  20
 119.080
  30
0.0
  11
 68.3696
  21
 119.080
  31
0.0
   0
ARC
   8
LEVEL001
   6
CONTINUOUS
  62
7
  10
 74.7047
  20
 121.050
  30
0.0
  40
 0.864000
  50
 0.390791E-3
  51
 89.9977
   0
LINE
   8
LEVEL001
   6
CONTINUOUS
  62
7
  10
 74.4173
  20
 121.914
  30
0.0
  11
 74.7047
  21
 121.914
  31
0.0
   0
ARC
   8
LEVEL001
   6
CONTINUOUS
  62
7
  10
 76.7207
  20
 99.7367
  30
0.0
  40
 0.576000
  50
 179.997
  51
 270.003
   0
LINE
   8
LEVEL001
   6
CONTINUOUS
  62
7
  10
 79.6101
  20
 99.1607
  30
0.0
  11
 76.7208
  21
 99.1607
  31
0.0
   0
LINE
   8
LEVEL001
   6
CONTINUOUS
  62
7
  10
 76.1447
  20
 101.503
  30
0.0
  11
 76.1447
  21
 99.7368
  31
0.0
   0
LINE
   8
LEVEL001
   6
CONTINUOUS
  62
7
  10
 75.5687
  20
 121.050
  30
0.0
  11
 75.5687
  21
 103.734
  31
0.0
   0
LINE
   8
LEVEL001
   6
CONTINUOUS
  62
7
  10
 72.1135
  20
 149.850
  30
0.0
  11
 72.1135
  21
 103.771
  31
0.0
   0
LINE
   8
LEVEL001
   6
CONTINUOUS
  62
7
  10
 69.2335
  20
 111.835
  30
0.0
  11
 72.1135
  21
 111.835
  31
0.0
   0
POLYLINE
   8
LEVEL001
   6
CONTINUOUS
  62
7
  66
1
  10
0.0
  20
0.0
  30
0.0
  70
0
   0
VERTEX
   8
LEVEL001
   6
CONTINUOUS
  62
7
  10
 72.1135
  20
 141.786
  30
0.0
   0
VERTEX
   8
LEVEL001
   6
CONTINUOUS
  62
7
  10
 69.2335
  20
 141.786
  30
0.0
   0
VERTEX
   8
LEVEL001
   6
CONTINUOUS
  62
7
  10
 69.2335
  20
 111.835
  30
0.0
   0
SEQEND
   0
POLYLINE
   8
LEVEL001
   6
CONTINUOUS
  62
7
  66
1
  10
0.0
  20
0.0
  30
0.0
  70
0
   0
VERTEX
   8
LEVEL001
   6
CONTINUOUS
  62
7
  10
 68.3696
  20
 119.080
  30
0.0
   0
VERTEX
   8
LEVEL001
   6
CONTINUOUS
  62
7
  10
 68.3696
  20
 106.075
  30
0.0
   0
VERTEX
   8
LEVEL001
   6
CONTINUOUS
  62
7
  10
 72.1135
  20
 106.075
  30
0.0
   0
SEQEND
   0
POLYLINE
   8
LEVEL001
   6
CONTINUOUS
  62
7
  66
1
  10
0.0
  20
0.0
  30
0.0
  70
0
   0
VERTEX
   8
LEVEL001
   6
CONTINUOUS
  62
7
  10
 77.5853
  20
 99.1607
  30
0.0
   0
VERTEX
   8
LEVEL001
   6
CONTINUOUS
  62
7
  10
 77.5853
  20
 97.7208
  30
0.0
   0
VERTEX
   8
LEVEL001
   6
CONTINUOUS
  62
7
  10
 86.2251
  20
 97.7208
  30
0.0
   0
VERTEX
   8
LEVEL001
   6
CONTINUOUS
  62
7
  10
 86.2251
  20
 98.9658
  30
0.0
   0
SEQEND
   0
LINE
   8
LEVEL001
   6
CONTINUOUS
  62
7
  10
 74.4173
  20
 152.154
  30
0.0
  11
 74.4173
  21
 101.905
  31
0.0
   0
ARC
   8
LEVEL001
   6
CONTINUOUS
  62
7
  10
 75.2478
  20
 100.753
  30
0.0
  40
 1.15200
  50
 31.1624
  51
 90.0005
   0
LINE
   8
LEVEL001
   6
CONTINUOUS
  62
7
  10
 74.4173
  20
 101.905
  30
0.0
  11
 75.2478
  21
 101.905
  31
0.0
   0
POLYLINE
   8
LEVEL001
   6
CONTINUOUS
  62
7
  66
1
  10
0.0
  20
0.0
  30
0.0
  70
0
   0
VERTEX
   8
LEVEL001
   6
CONTINUOUS
  62
7
  10
 74.4173
  20
 103.770
  30
0.0
   0
VERTEX
   8
LEVEL001
   6
CONTINUOUS
  62
7
  10
 69.2335
  20
 103.770
  30
0.0
   0
VERTEX
   8
LEVEL001
   6
CONTINUOUS
  62
7
  10
 69.2335
  20
 106.074
  30
0.0
   0
SEQEND
   0
ARC
   8
LEVEL001
   6
CONTINUOUS
  62
7
  10
 80.1767
  20
 103.734
  30
0.0
  40
 4.60800
  50
 180.000
  51
 268.501
   0
LINE
   8
LEVEL001
   6
CONTINUOUS
  62
7
  10
 100.337
  20
 98.5963
  30
0.0
  11
 80.0562
  21
 99.1274
  31
0.0
   0
LINE
   8
LEVEL001
   6
CONTINUOUS
  62
7
  10
 55.4097
  20
 134.593
  30
0.0
  11
 55.4097
  21
 119.041
  31
0.0
   0
LINE
   8
LEVEL001
   6
CONTINUOUS
  62
7
  10
 62.0337
  20
 119.315
  30
0.0
  11
 55.4097
  21
 119.315
  31
0.0
   0
LINE
   8
LEVEL001
   6
CONTINUOUS
  62
7
  10
 63.7441
  20
 122.771
  30
0.0
  11
 62.0337
  21
 122.044
  31
0.0
   0
POLYLINE
   8
LEVEL001
   6
CONTINUOUS
  62
7
  66
1
  10
0.0
  20
0.0
  30
0.0
  70
0
   0
VERTEX
   8
LEVEL001
   6
CONTINUOUS
  62
7
  10
 62.0337
  20
 122.044
  30
0.0
   0
VERTEX
   8
LEVEL001
   6
CONTINUOUS
  62
7
  10
 62.0337
  20
 110.250
  30
0.0
   0
VERTEX
   8
LEVEL001
   6
CONTINUOUS
  62
7
  10
 68.3696
  20
 109.242
  30
0.0
   0
SEQEND
   0
CIRCLE
   8
LEVEL001
   6
CONTINUOUS
  62
7
  10
 59.7287
  20
 126.810
  30
0.0
  40
 1.73463
   0
CIRCLE
   8
LEVEL001
   6
CONTINUOUS
  62
7
  10
 59.7287
  20
 126.810
  30
0.0
  40
 2.88664
   0
ARC
   8
LEVEL001
   6
CONTINUOUS
  62
7
  10
 59.7220
  20
 126.810
  30
0.0
  40
 4.03908
  50
 89.9055
  51
 270.094
   0
LINE
   8
LEVEL001
   6
CONTINUOUS
  62
7
  10
 69.2335
  20
 122.771
  30
0.0
  11
 59.7287
  21
 122.771
  31
0.0
   0
POLYLINE
   8
LEVEL001
   6
CONTINUOUS
  62
7
  66
1
  10
0.0
  20
0.0
  30
0.0
  70
0
   0
VERTEX
   8
LEVEL001
   6
CONTINUOUS
  62
7
  10
 79.0253
  20
 144.101
  30
0.0
   0
VERTEX
   8
LEVEL001
   6
CONTINUOUS
  62
7
  10
 79.0253
  20
 144.446
  30
0.0
   0
VERTEX
   8
LEVEL001
   6
CONTINUOUS
  62
7
  10
 74.4173
  20
 144.446
  30
0.0
   0
SEQEND
   0
LINE
   8
LEVEL001
   6
CONTINUOUS
  62
7
  10
 74.9934
  20
 144.101
  30
0.0
  11
 74.4173
  21
 144.101
  31
0.0
   0
ARC
   8
LEVEL001
   6
CONTINUOUS
  62
7
  10
 77.2398
  20
 144.677
  30
0.0
  40
 1.43996
  50
0.0
  51
 90.0014
   0
LINE
   8
LEVEL001
   6
CONTINUOUS
  62
7
  10
 78.6796
  20
 144.446
  30
0.0
  11
 78.6798
  21
 144.677
  31
0.0
   0
ARC
   8
LEVEL001
   6
CONTINUOUS
  62
7
  10
 76.2030
  20
 144.677
  30
0.0
  40
 1.43996
  50
 90.0056
  51
 180.001
   0
LINE
   8
LEVEL001
   6
CONTINUOUS
  62
7
  10
 74.7631
  20
 144.677
  30
0.0
  11
 74.7629
  21
 144.446
  31
0.0
   0
LINE
   8
LEVEL001
   6
CONTINUOUS
  62
7
  10
 77.2398
  20
 146.117
  30
0.0
  11
 76.2029
  21
 146.117
  31
0.0
   0
LINE
   8
LEVEL001
   6
CONTINUOUS
  62
7
  10
 55.4097
  20
 134.593
  30
0.0
  11
 54.2578
  21
 134.593
  31
0.0
   0
LINE
   8
LEVEL001
   6
CONTINUOUS
  62
7
  10
 62.0337
  20
 134.305
  30
0.0
  11
 55.4097
  21
 134.305
  31
0.0
   0
LINE
   8
LEVEL001
   6
CONTINUOUS
  62
7
  10
 63.7441
  20
 130.849
  30
0.0
  11
 62.0337
  21
 131.577
  31
0.0
   0
LINE
   8
LEVEL001
   6
CONTINUOUS
  62
7
  10
 69.2335
  20
 134.554
  30
0.0
  11
 68.3696
  21
 134.554
  31
0.0
   0
ARC
   8
LEVEL001
   6
CONTINUOUS
  62
7
  10
 86.7283
  20
 134.874
  30
0.0
  40
 1.15197
  50
 201.036
  51
 269.997
   0
ARC
   8
LEVEL001
   6
CONTINUOUS
  62
7
  10
 86.7284
  20
 134.874
  30
0.0
  40
 1.15197
  50
 201.033
  51
 269.996
   0
ARC
   8
LEVEL001
   6
CONTINUOUS
  62
7
  10
 82.2656
  20
 140.059
  30
0.0
  40
 1.15197
  50
 21.0364
  51
 89.9242
   0
LINE
   8
LEVEL001
   6
CONTINUOUS
  62
7
  10
 85.6531
  20
 134.460
  30
0.0
  11
 83.3408
  21
 140.472
  31
0.0
   0
ARC
   8
LEVEL001
   6
CONTINUOUS
  62
7
  10
 81.3292
  20
 144.677
  30
0.0
  40
 0.575986
  50
 270.007
  51
 0.201535E-2
   0
ARC
   8
LEVEL001
   6
CONTINUOUS
  62
7
  10
 74.9933
  20
 143.525
  30
0.0
  40
 0.575986
  50
 89.9892
  51
 180.002
   0
ARC
   8
LEVEL001
   6
CONTINUOUS
  62
7
  10
 74.7053
  20
 141.509
  30
0.0
  40
 0.287993
  50
 180.007
  51
 269.952
   0
LINE
   8
LEVEL001
   6
CONTINUOUS
  62
7
  10
 82.2671
  20
 141.211
  30
0.0
  11
 74.7051
  21
 141.221
  31
0.0
   0
LINE
   8
LEVEL001
   6
CONTINUOUS
  62
7
  10
 81.3293
  20
 144.101
  30
0.0
  11
 74.9934
  21
 144.101
  31
0.0
   0
LINE
   8
LEVEL001
   6
CONTINUOUS
  62
7
  10
 100.337
  20
 133.722
  30
0.0
  11
 86.7283
  21
 133.722
  31
0.0
   0
LINE
   8
LEVEL001
   6
CONTINUOUS
  62
7
  10
 100.337
  20
 133.722
  30
0.0
  11
 86.7283
  21
 133.722
  31
0.0
   0
POLYLINE
   8
LEVEL001
   6
CONTINUOUS
  62
7
  66
1
  10
0.0
  20
0.0
  30
0.0
  70
0
   0
VERTEX
   8
LEVEL001
   6
CONTINUOUS
  62
7
  10
 74.4173
  20
 149.850
  30
0.0
   0
VERTEX
   8
LEVEL001
   6
CONTINUOUS
  62
7
  10
 69.2335
  20
 149.850
  30
0.0
   0
VERTEX
   8
LEVEL001
   6
CONTINUOUS
  62
7
  10
 69.2335
  20
 147.546
  30
0.0
   0
SEQEND
   0
POLYLINE
   8
LEVEL001
   6
CONTINUOUS
  62
7
  66
1
  10
0.0
  20
0.0
  30
0.0
  70
0
   0
VERTEX
   8
LEVEL001
   6
CONTINUOUS
  62
7
  10
 62.0337
  20
 131.577
  30
0.0
   0
VERTEX
   8
LEVEL001
   6
CONTINUOUS
  62
7
  10
 62.0337
  20
 143.370
  30
0.0
   0
VERTEX
   8
LEVEL001
   6
CONTINUOUS
  62
7
  10
 68.3696
  20
 144.378
  30
0.0
   0
SEQEND
   0
POLYLINE
   8
LEVEL001
   6
CONTINUOUS
  62
7
  66
1
  10
0.0
  20
0.0
  30
0.0
  70
0
   0
VERTEX
   8
LEVEL001
   6
CONTINUOUS
  62
7
  10
 72.1135
  20
 147.546
  30
0.0
   0
VERTEX
   8
LEVEL001
   6
CONTINUOUS
  62
7
  10
 68.3696
  20
 147.546
  30
0.0
   0
VERTEX
   8
LEVEL001
   6
CONTINUOUS
  62
7
  10
 68.3696
  20
 134.554
  30
0.0
   0
SEQEND
   0
LINE
   8
LEVEL001
   6
CONTINUOUS
  62
7
  10
 81.9052
  20
 144.677
  30
0.0
  11
 81.9052
  21
 154.469
  31
0.0
   0
LINE
   8
LEVEL001
   6
CONTINUOUS
  62
7
  10
 74.4173
  20
 141.509
  30
0.0
  11
 74.4173
  21
 154.469
  31
0.0
   0
LINE
   8
LEVEL001
   6
CONTINUOUS
  62
7
  10
 69.2335
  20
 130.849
  30
0.0
  11
 59.7287
  21
 130.849
  31
0.0
   0
ARC
   8
LEVEL001
   6
CONTINUOUS
  62
7
  10
 74.9933
  20
 154.469
  30
0.0
  40
 0.575986
  50
 89.9892
  51
 180.002
   0
ARC
   8
LEVEL001
   6
CONTINUOUS
  62
7
  10
 82.4812
  20
 154.469
  30
0.0
  40
 0.575986
  50
 90.0067
  51
 180.002
   0
LINE
   8
LEVEL001
   6
CONTINUOUS
  62
7
  10
 79.7718
  20
 95.4565
  30
0.0
  11
 77.5853
  21
 97.7208
  31
0.0
   0
LINE
   8
LEVEL001
   6
CONTINUOUS
  62
7
  10
 74.9934
  20
 155.045
  30
0.0
  11
 125.680
  21
 155.045
  31
0.0
   0
LINE
   8
LEVEL001
   6
DASHDOT
  62
1
  10
 100.337
  20
 156.680
  30
0.0
  11
 100.337
  21
 94.2022
  31
0.0
   0
LINE
   8
LEVEL001
   6
DASHDOT
  62
1
  10
 81.9052
  20
 105.720
  30
0.0
  11
 81.9052
  21
 77.9583
  31
0.0
   0
LINE
   8
LEVEL001
   6
DASHDOT
  62
1
  10
 118.768
  20
 105.720
  30
0.0
  11
 118.768
  21
 77.9583
  31
0.0
   0
LINE
   8
LEVEL001
   6
DASHDOT
  62
1
  10
 136.138
  20
 126.810
  30
0.0
  11
 145.738
  21
 126.810
  31
0.0
   0
LINE
   8
LEVEL001
   6
DASHDOT
  62
1
  10
 140.938
  20
 131.610
  30
0.0
  11
 140.938
  21
 122.010
  31
0.0
   0
LINE
   8
LEVEL001
   6
DASHDOT
  62
1
  10
 54.9220
  20
 126.810
  30
0.0
  11
 64.5220
  21
 126.810
  31
0.0
   0
LINE
   8
LEVEL001
   6
DASHDOT
  62
1
  10
 59.7220
  20
 131.610
  30
0.0
  11
 59.7220
  21
 122.010
  31
0.0
   0
LINE
   8
LEVEL001
   6
CONTINUOUS
  62
1
  10
 125.088
  20
 88.8045
  30
0.0
  11
 172.337
  21
 88.8045
  31
0.0
   0
LINE
   8
LEVEL001
   6
CONTINUOUS
  62
1
  10
 127.680
  20
 155.045
  30
0.0
  11
 172.337
  21
 155.045
  31
0.0
   0
LINE
   8
LEVEL001
   6
CONTINUOUS
  62
1
  10
 170.337
  20
 88.8045
  30
0.0
  11
 170.337
  21
 155.045
  31
0.0
   0
LINE
   8
LEVEL001
   6
CONTINUOUS
  62
1
  10
 170.337
  20
 88.8045
  30
0.0
  11
 170.863
  21
 92.8045
  31
0.0
   0
LINE
   8
LEVEL001
   6
CONTINUOUS
  62
1
  10
 170.337
  20
 88.8045
  30
0.0
  11
 169.810
  21
 92.8045
  31
0.0
   0
LINE
   8
LEVEL001
   6
CONTINUOUS
  62
1
  10
 170.337
  20
 155.045
  30
0.0
  11
 169.810
  21
 151.045
  31
0.0
   0
LINE
   8
LEVEL001
   6
CONTINUOUS
  62
1
  10
 170.337
  20
 155.045
  30
0.0
  11
 170.863
  21
 151.045
  31
0.0
   0
TEXT
   8
LEVEL001
  62
1
  10
 167.765
  20
 112.925
  30
0.0
  40
 6.00000
   1
115
  50
 90.0000
   7
STANDARD
  72
1
  11
 167.765
  21
 121.925
  31
0.0
   0
LINE
   8
LEVEL001
   6
CONTINUOUS
  62
1
  10
 81.9053
  20
 75.9583
  30
0.0
  11
 81.9053
  21
 65.2799
  31
0.0
   0
LINE
   8
LEVEL001
   6
CONTINUOUS
  62
1
  10
 118.768
  20
 75.9583
  30
0.0
  11
 118.768
  21
 65.2799
  31
0.0
   0
LINE
   8
LEVEL001
   6
CONTINUOUS
  62
1
  10
 81.9053
  20
 66.2799
  30
0.0
  11
 118.768
  21
 66.2799
  31
0.0
   0
LINE
   8
LEVEL001
   6
CONTINUOUS
  62
1
  10
 81.9053
  20
 66.2799
  30
0.0
  11
 85.9053
  21
 65.7533
  31
0.0
   0
LINE
   8
LEVEL001
   6
CONTINUOUS
  62
1
  10
 81.9053
  20
 66.2799
  30
0.0
  11
 85.9053
  21
 66.8065
  31
0.0
   0
LINE
   8
LEVEL001
   6
CONTINUOUS
  62
1
  10
 118.768
  20
 66.2799
  30
0.0
  11
 114.768
  21
 66.8065
  31
0.0
   0
LINE
   8
LEVEL001
   6
CONTINUOUS
  62
1
  10
 118.768
  20
 66.2799
  30
0.0
  11
 114.768
  21
 65.7533
  31
0.0
   0
TEXT
   8
LEVEL001
  62
1
  10
 94.3367
  20
 68.8513
  30
0.0
  40
 6.00000
   1
64
   7
STANDARD
  72
1
  11
 100.337
  21
 68.8513
  31
0.0
   0
LINE
   8
LEVEL001
   6
CONTINUOUS
  62
1
  10
 59.7220
  20
 120.010
  30
0.0
  11
 59.7220
  21
 49.2799
  31
0.0
   0
LINE
   8
LEVEL001
   6
CONTINUOUS
  62
1
  10
 140.938
  20
 120.010
  30
0.0
  11
 140.938
  21
 49.2799
  31
0.0
   0
LINE
   8
LEVEL001
   6
CONTINUOUS
  62
1
  10
 59.7220
  20
 51.2799
  30
0.0
  11
 140.938
  21
 51.2799
  31
0.0
   0
LINE
   8
LEVEL001
   6
CONTINUOUS
  62
1
  10
 59.7220
  20
 51.2799
  30
0.0
  11
 63.7220
  21
 50.7533
  31
0.0
   0
LINE
   8
LEVEL001
   6
CONTINUOUS
  62
1
  10
 59.7220
  20
 51.2799
  30
0.0
  11
 63.7220
  21
 51.8065
  31
0.0
   0
LINE
   8
LEVEL001
   6
CONTINUOUS
  62
1
  10
 140.938
  20
 51.2799
  30
0.0
  11
 136.938
  21
 51.8065
  31
0.0
   0
LINE
   8
LEVEL001
   6
CONTINUOUS
  62
1
  10
 140.938
  20
 51.2799
  30
0.0
  11
 136.938
  21
 50.7533
  31
0.0
   0
TEXT
   8
LEVEL001
  62
1
  10
 91.3301
  20
 53.8513
  30
0.0
  40
 6.00000
   1
141
   7
STANDARD
  72
1
  11
 100.330
  21
 53.8513
  31
0.0
   0
LINE
   8
LEVEL001
   6
CONTINUOUS
  62
1
  10
 54.2578
  20
 117.041
  30
0.0
  11
 54.2578
  21
 34.2799
  31
0.0
   0
LINE
   8
LEVEL001
   6
CONTINUOUS
  62
1
  10
 146.416
  20
 117.041
  30
0.0
  11
 146.416
  21
 34.2799
  31
0.0
   0
LINE
   8
LEVEL001
   6
CONTINUOUS
  62
1
  10
 54.2578
  20
 36.2799
  30
0.0
  11
 146.416
  21
 36.2799
  31
0.0
   0
LINE
   8
LEVEL001
   6
CONTINUOUS
  62
1
  10
 54.2578
  20
 36.2799
  30
0.0
  11
 58.2578
  21
 35.7533
  31
0.0
   0
LINE
   8
LEVEL001
   6
CONTINUOUS
  62
1
  10
 54.2578
  20
 36.2799
  30
0.0
  11
 58.2578
  21
 36.8065
  31
0.0
   0
LINE
   8
LEVEL001
   6
CONTINUOUS
  62
1
  10
 146.416
  20
 36.2799
  30
0.0
  11
 142.416
  21
 36.8065
  31
0.0
   0
LINE
   8
LEVEL001
   6
CONTINUOUS
  62
1
  10
 146.416
  20
 36.2799
  30
0.0
  11
 142.416
  21
 35.7533
  31
0.0
   0
TEXT
   8
LEVEL001
  62
1
  10
 91.3367
  20
 38.8513
  30
0.0
  40
 6.00000
   1
160
   7
STANDARD
  72
1
  11
 100.337
  21
 38.8513
  31
0.0
   0
TEXT
   8
LEVEL001
  62
7
  10
 67.3367
  20
 5.27987
  30
0.0
  40
 12.0000
   1
‚r‚u series
   7
STANDARD
  72
1
  11
 100.337
  21
 13.2799
  31
0.0
  73
2
   0
ENDSEC
   0
EOF
